Intro:
E
B-----------------------------------------------------3-5-7-8-7-5-7-------------
G---------4-6-4-3-4-------5-7-5-4-5-------4-6-4-3-4-6---------------------------
D-------------------------------------------------------------------------------
A-----2--------------2-3-------------3-2----------------------------------------
E---2---------------------------------------------------------------------------
BASS BASS BASS
(GUITAR TOO) (GUITAR TOO) (GUITAR TOO)
E-----0-2-3-2-3-2-3-3-3-3-3-3-3-3-2-0-------------------------------------------
B---0---------------------------------3-2-0-3-----------------------------------
G-------------------------------------------------------------------------------
D-------------------------------------------------------------------------------
A-------------------------------------------------------------------------------
E-------------------------------------------------------------------------------
D+
E----------2-2---2-3-2-0-2-0---0-----------------2------------------------------
B------0-2-------------------3---3-2-3-2-0------3-------------------------------
G----------------------------------------------3--------------------------------
D---4-----------------------------------------4---------------------------------
A-----------------------------------------------------2-3-----------------------
E-------------------------------------------------------------------------------
BASS
(GUITAR TOO)
Bm Bm/C# Bm/D Bm/Eb
E------2------2---------2-----2-------------------------------------------------
B------3------3---------3-----3-------------------------------------------------
G------4------4---------2-----2-------------------------------------------------
D-----4------2---------2-----2--------------------------------------------------
A----2----2-4-------4-5---5-6---------------------------------------------------
E-------------------------------------------------------------------------------
Porque tu amor es mi espina

Em A7 D
E----------------------0------3------------2--2-2-2-2-2-2-2-2-2-2---------------
B----------------------0------2------------3--3-3-3-3-3-3-3-3-3-3---------------
G----------------------0------0-----------2---2-2-2-2-2-2-2-2-2-2---------------
D---------------------2------2-----------0----0-0-0-0-0-0-0-0-0-0---------------
A---------------------------0---------------------------------------------------
E-------------------0-----------------------------------------------------------
Por las cuatro esquinas ablan de los dos
A D G F# Bm D+
E----0-0-0-0-0-0-0-0--2-2-2-2-2-2-2-2-------3---------2---------2-------2-------
B----2-2-2-2-2-2-2-2--3-3-3-3-3-3-3-3-------3---------2---------3------3--------
G----2-2-2-2-2-2-2-2--2-2-2-2-2-2-2-2-------4---------3---------4-----3---------
D----2-2-2-2-2-2-2-2--0-0-0-0-0-0-0-0------5---------4---------4-----4----------
A---0--0-0-0-0-0-0-0------------------------------------------2-----------------
E-----------------------------------------3-------3-2--------------------------- Es un escandalo disen hasta me maldisen por dalte mi amor
Verse 2/Versos segundos {use same guitar work as the first verse}
{use los mismos puntiajes del primer verso}
Deja que siga la gente
sige la corriente
Y quiereme mas
con eso dengo bastante
bamos adelante sin ver que diran.
Verse 3/ Verso #3 B7 A
E--------------------------7--7----7--7----7--7----7--7----5--------------------
B--------------------------10-10---10-10---10-10---10-10---5--------------------
G--------------------------8--8----8--8----8--8----8--8----6--------------------
D--------------------------7--7----7--7----7--7----7--7----7--------------------
A--------------------------9--9----9--9----9--9----9--9----7--------------------
E--------------------------7--7----7--7----7--7----7--7----5--------------------
Si llo pudiera algun dia
A7 D A
E-----------3----------2-2-2-2-2-2-2-2-2-2-2---0-0-0-0--------------------------
B-----------2----------3-3-3-3-3-3-3-3-3-3-3---2-2-2-2--------------------------
G-----------0----------2-2-2-2-2-2-2-2-2-2-2---2-2-2-2--------------------------
D----------2----------0--0-0-0-0-0-0-0-0-0-0---2-2-2-2--------------------------
A---------0------------------------------------0-0-0-0--------------------------
E-------------------------------------------------------------------------------
Remontarme a las estrellas con migo te llevaria
C#7 F#
E----4-4-4-4-4-4-4-4--2-2-2-2-2-2-2---------------------------------------------
B----6-6-6-6-6-6-6-6--2-2-2-2-2-2-2---------------------------------------------
G----4-4-4-4-4-4-4-4--3-3-3-3-3-3-3---------------------------------------------
D----6-6-6-6-6-6-6-6--4-4-4-4-4-4-4---------------------------------------------
A----4-4-4-4-4-4-4-4--4-4-4-4-4-4-4---------------------------------------------
E---------------------2-2-2-2-2-2-2---------------------------------------------
A donde nadie nos viera

verse 4/ Veso # 4 {use the same guiatr work as in first verse}
{use los mismos puntieajes de guitara del verso primero}
Deja que siga la gente
sige la corriente
y quiereme mas
que si eso es escandaloso
es mas vergonzosos no saber amar
{Solo}--Im still working on it
Todavia estoi en eso--

Verse 5 / Verso #5
Em A7* D
E---------------------------0-0-0-0-0--0-0-0-0-0--------------2-2-2-2-2-2---2-2-
B---------------------------0-0-0-0-0--2-2-2-2-2--------------3-3-3-3-3-3---3-3-
G---------------------------0-0-0-0-0--0-0-0-0-0--------------2-2-2-2-2-2---2-2-
D---------------------------2-2-2-2-2--2-2-2-2-2--------------0-0-0-0-0-0-0-0-0-
A---------------------------2-2-2-2-2--0-0-0-0-0--------------------------------
E---------------------------0-0-0-0-0-------------------------------------------
Si llo pudiera algun dia Remontarme a las estrellas
A C#7 F#
E-----2-2-2-2---2-2-2-2-2-2--0-0-0-0-0-0-0--4-4-4-4-4-4-4-4-4-4-2-2-2-2-2-2-2-2
B-----3-3-3-3---3-3-3-3-3-3--2-2-2-2-2-2-2--6-6-6-6-6-6-6-6-6-6-2-2-2-2-2-2-2-2
G-----2-2-2-2---2-2-2-2-2-2--2-2-2-2-2-2-2--4-4-4-4-4-4-4-4-4-4-3-3-3-3-3-3-3-3
D---0-0-0-0-0-0-0-0-0-0-0-0--2-2-2-2-2-2-2--6-6-6-6-6-6-6-6-6-6-4-4-4-4-4-4-4-4
A----------------------------0-0-0-0-0-0-0--4-4-4-4-4-4-4-4-4-4-4-4-4-4-4-4-4-4
E---------------------------------------------------------------2-2-2-2-2-2-2-2
con migo te llevaria a donde nadie nos viera
Repeat verse 4/ Repite Verso 4 (same guitar work)
(mismo puntiaje de gitarra)

Ending:
Bm C G#+
E---------2-2-2-2-2-2-2-2-2-0-0-0-0-0-0-0-0-0-0-0-0-0-0---4---------------------
B---------3-3-3-3-3-3-3-3-3-1-1-1-1-1-1-1-1-1-1-1-1-1-1---5---------------------
G---------4-4-4-4-4-4-4-4-4-0-0-0-0-0-0-0-0-0-0-0-0-0-0---5---------------------
D---------4-4-4-4-4-4-4-4-4-2-2-2-2-2-2-2-2-2-2-2-2-2-2---6---------------------
A---------2-2-2-2-2-2-2-2-2-3-3-3-3-3-3-3-3-3-3-3-3-3-3-------------------------
E-------------------------------------------------------------------------------
...... amar____________________________________________




Ваше мнение



Капча