Date: Sun, 11 Aug 1996 01:00:22 +0000
From: Samuel Souk-Aloun
Subject: TAB : Amelia - Joni Mitchell - Album HEJIRA
------#
f the #
arch. #
------##
Amelia - Joni Mitchell (Hejira)
---------------------------
Transcribed by Samuel Souk-Aloun
Email [email protected]
---------------------------
Si quelqu'un am=E8ne des corrections =E0 cette tablature, s.v.p., tenez-m=
oi au courant.
Quelqu'un sait-il o=F9 sont les mesures ??
If someone adds corrections to this tab, please, tell me what's going wro=
ng.
Does someone knows where are the bars ??
_ _ _ _ _ _ _ _ _=A0 _ _ =20
| | | | | | | | | | | | | | | | | | | | | |
C|----------0-------5-------------------0-----
G|--0---0---0-5-----5-----5---5-----5---0-----
E|1-----3-----5-----------6h5-6h5---5-----0---
C|0-------0-------5-------5---5-----------0---
G|--------------5-------5---------------------
C|2-----4-----5-------5-----------5-------0---
_ _ _ _ _ _ _ _ _=A0 _ _ =20
| | | | | | | | | | | | | | | | | | | | | |
C|----------0-------5---------------5---------
G|--0---0---0-5-----5-----5---------5---------
E|1-----3-----5-----------6h5-6-------------6-
C|0-------0-------5-------5---5---5-------5---
G|--------------5-------5-------5-------5-----
C|2-----4-----5-------5---------------5-------
I was
_ _ _ _ _ _ _ _ _=A0 _ _ _ _ _=A0 _ _ =20
| | | | | | | | | | | | | | | | | | | | | | | | | | | | | | | |=20
C|----7-------7--------(7)-----(7)----10------10-----(10)---------|
G|7---7-------7---------7-------7-10--10------10------10------0---|
E|7-----8-------7-------7-------7-10----11------10----10------0---|
C|--7-------7---------7-------7-----10------10--------10------0---|
G|------------------7-------7-----------------------10------100---|
C|7-------7-------7-------7-------10------10------10------10------|
driving accross the burning desert when I spotted 6 jet planes living 6
_ _ _ _ _ _ _ _ _=A0 _ _ _ _ _=A0 _ _ _ =
_
| | | | | | | | | | | | | | | | | | | | | | | | | | | | | | | | | | | |
C|------0---------------2-----------------------7-------7-------7--------=
-|
G|------0---0-----------2---------------7-------7-------7-------7--------=
-|
E|----0-----0---------3-------0---7-----8-----8-------8-------8----------=
-|
C|--0---------0-----2-------2-0-------------7-------7-------7-------7----=
-|
G|2-------2-------4-------4-------0-----9---------9-------9-------9---9-7=
-|
C|----------------------------0------------------------------------------=
-|
white vapor trails accross the bleak terrain it was =
the =20
_ _ _ _ _ _ _ _ _=A0 _ _ _ _ _=A0 _ _ _ =
_=A0 _ _=20
| | | | | | | | | | | | | | | | | | | | | | | | | | | | | | | | | | | |=
| | | |
C|------0---------------2---------------9-----------0--------------------=
----0----|
G|------0---------------2---------------9------------0-------------------=
----0----|
E|----0-----0-----------3---------------10--------7---7------------------=
----0----|
C|--0---------0-------2-----2---------9-----9-----0----0-----------------=
----0----|
G|5-------5---------4---------2-----11--------11--9-----9----------------=
----0----|
C|----------------4-------4-------11------11------9------9---------------=
---(0)---|
hexagram of the heavens it was the strings of my guitar
_ _ _ _ _ _ _ _ _=A0 _ _ _ _ _=A0 _ _ =20
| | | | | | | | | | | | | | | | | | | | | | | | | | | | | | | |=20
C|------5-----------------------------------------------5---0-----|
G|5-----5-----5---5-----5-----5---5-------5---------5-------0-----|
E|5-----------5---6-----6-----6---5-------6h5---5-------------0---|
C|----5-------5---5---5-------5---5-----5-------5-------------0---|
G|--5-------5-------5-------5---------5-------5-------------------|
C|5-------5---------------5---------5---------------------------- |
Amelia it was just a false alarm




Ваше мнение



Капча