Вступление:

E-----------------------------------------------|
H-----------------------------------------------|
G-----------------------------------------------|
D|-----4-4--------------------------------------------------|
A|-5-7-----5-7--9-7-5-5-5----------5-5-5-7-9--9-9-7-7-7-9-7-|
E-------------7-5--5-5--------------------------|

E-----------------------------------------------|
H-----------------------------------------------|
G-----------------------------------------------|
D|-------4-7-7-7--4-----------------------------------------|
A|-5-5-7------------7-5-5----------5-5-5-7-9--9-9-7-9-7-----|
E-------------7-5--5-5--------------------------|

В это время в басу идут такие ноты:

D A Hm F#m G D A

D A Hm F#m
Они мечтали, к волнам спускали
G D A
За бригом бриг, не покладая рук
D A Hm F#m
И уплывали, хотя не знали
G D A
Когда увидят вновь своих подруг

Припев:
D A Hm
Все острова - давным, давно открыты
G A D A Hm G
И даже те - где тесно и вдвоем
A D A Hm G
Но, все то, что мы знаем, - ни чего не значит
D A Hm G
Все то, что мы знаем, - ни чего не значит
A D A
Для нас - мы новый найдем!

Они сумели, пройти все мели
И слишком мал для них был шар земной
В шторма и штили, они входили
В любую гавань, как к себе домой

Когда сэр Дрейк уплывал, покидая свой причал
Кем вернется он назад, - вряд ли кто б тогда сказал
Дарвин, и Магеллан, слыша голос дальних стран
Забывали те слова, что твердил капеллан.

Их волны звали, они узнали
У слез и моря одинаков вкус
Кто испугался, навек остался
Среди акул, кораллов и медуз

Припев...

мы новый найдем!
Под аккорды D & A




Ваше мнение



Капча