T1: Michael Gooding, [email protected], Jebediah, The Less Trusted
Pain Remover, 8/99?

S1: --==Intro / Chorus==--
Guitar 1
e: ----------------------------------------|
B: ----------------------------------------|
G: --7-7-7-7--5-5-5-5---0-0-0-0--2-2-2--0--|
D: ----------------------------------------| x8
A: ----------------------------------------|
E: ----------------------------------------|

Guitar 2 - Comes in forth time through
e: ----------------------------------------|
B: ----------------------------------------|
G: --7-7-7-7--5-5-5-5----------------------|
D: --7-7-7-7--5-5-5-5--5-5-5-5--7-7-7-5----| x4
A: --5-5-5-5--3-3-3-3--5-5-5-5--7-7-7-5----|
E: --------------------3-3-3-3--5-5-5-3----|

--==Verse==--
e: ----------------------------------------|
B: ------3---------3---------3---------3---|
G: ----5---5-----5---5-----5---5-----5---5-|
D: --5---------5---------5---------5-------|
A: ----------------------------------------|
E: ----------------------------------------|

e: ----------------------------------------|
B: ------5---------5----6-5--6-5-----------|
G: ----4---4-----4-------------------------|
D: --5---------5---------------------------|
A: ----------------------------------------|
E: ----------------------------------------|





Ваше мнение



Капча