Song: Puck Defenders
Artist: Jebediah
I have no idea how right or wrong the following tab is so don't hold me
to it but if you have any corrections/problems/queries/requests feel
free to email me on [email protected] (please excuse the
stupidity in the email address!)

(intro)
G-------------------------------------
D-------------------------------------
A---0----0----0----0--2---4---2-------
E------0----0----0--------------------
repeat X10

G-----------------------------------------------------------
D-----------------------------7--5--7--7--7--5--7--5--7-----
A---0--0--0---4--4--4--5--5---------------------------------
E-----------------------------------------------------------
repeat X3

G-----------------------------
D-----------------------------
A---0--0--0--4--4--4--5-------
E-----------------------------

(verse)
G-------------------------------------
D-------------------0-0-0-0--2-2-2-2--
A--0-0-0-0--2-2-2-2-------------------
E-------------------------------------

G--------------------------------2-0----------
D--------------------0-0-0-0--2------0--------
A--0-0-0-0--2-2-2-2---------------------------
E---------------------------------------------
repeat X5

(chorus)
G-----------------------------------------------------------
D-----------------------------------------------------------
A--2-4-5--2-4-5--2-4-5--2-4-5--5-0-5-0-5-0-5-5-0-5-0-5-0----
E-----------------------------------------------------------

(verse)
G-------------------------------------
D-------------------0-0-0-0--2-2-2-2--
A--0-0-0-0--2-2-2-2-------------------
E-------------------------------------

G--------------------------------2-0----------
D--------------------0-0-0-0--2------0--------
A--0-0-0-0--2-2-2-2---------------------------
E---------------------------------------------
repeat X5

(chorus)
G-----------------------------------------------------------
D-----------------------------------------------------------
A--2-4-5--2-4-5--2-4-5--2-4-5--5-0-5-0-5-0-5-5-0-5-0-5-0----
E-----------------------------------------------------------

(interlude)
G-----------------------------------------------------------
D-----------------------------7--5--7--7--7--5--7--5--7-----
A---0--0--0---4--4--4--5--5---------------------------------
E-----------------------------------------------------------
repeat X3

G-----------------------------
D-----------------------------
A---0--0--0--4--4--4--5-------
E-----------------------------

(verse)
G-------------------------------------
D-------------------0-0-0-0--2-2-2-2--
A--0-0-0-0--2-2-2-2-------------------
E-------------------------------------

G--------------------------------2-0----------
D--------------------0-0-0-0--2------0--------
A--0-0-0-0--2-2-2-2---------------------------
E---------------------------------------------
repeat X7

(chorus)
G-----------------------------------------------------------
D-----------------------------------------------------------
A--2-4-5--2-4-5--2-4-5--2-4-5--5-0-5-0-5-0-5-5-0-5-0-5-0----
E-----------------------------------------------------------

(outro)
G-----------------------------------------------------------
D-----------------------------7--5--7--7--7--5--7--5--7-----
A---0--0--0---4--4--4--5--5---------------------------------
E-----------------------------------------------------------
repeat X3

G-----------------------------
D-----------------------------
A---0--0--0--4--4--4--5-------
E-----------------------------


It is all about improvisation. The chances of me being
exactly right on this tab are one in a million so the idea is you take
this and put it with the music and you'll hear different things and
other things I've missed so improvise and send me a correction email!!
Thanx.





Ваше мнение



Капча