Jebediah - Nothing Lasts Forever
Tabbed By Stephen Pang ([email protected])
Intro/Pre-Chorus
G|---------------------------------|
D|---------------------------------|
A|---------------------------5-4-0-|
E|-3-3-3-3-3-3-3-3-3-3-3-3-3-------|
G|---------------------------------|
D|---------------------------------|
A|-2-2-2-------2---2---2-------2---|
E|-------5-2-5---5---5---5-2-5---5-|
Intro/Chorus/Bridge End & Outro
G|-----------------------------|
D|-----------------------------|
A|-3-3-3-3-3-3-3-3-3-3-3-3-3---|
E|-----------------------------|
Verse
G|--------------|
D|--------------|
A|-5--3--2---3--|
E|--------------|
Pre-Chorus End
G|---------------------------------|
D|---------------------2-2-5-5-2-2-|
A|-2-2-2---------------------------|
E|-------5-2-5-2-5-5-5-------------|
Chorus
G|-----------------|-----------------|
D|-----------------|-----------------|
A|-----------------|-5-5-5-5-5-5-5-5-|
E|-3-3-3-3-3-3-3-3-|-----------------|
G|-----------------|-----------------|
D|-----------------|-------------7---|
A|-2-2-2-2-2-2-2-2-|-----------7---7-|
E|-----------------|-5-5-5-5-5-------|

2nd Chorus End (same as first with this on the end)
G|-----|
D|-----|
A|--5--|
E|-----|
Bridge (guitar plays first part)
G|-------------------------|
D|-------------------------|
A|-------5---3---2---2-----|
E|-3---3---------------3---|
G|-----------------------------|-----------------------------|
D|-----------------------------|-----------------------------|
A|----------------------0-0--0-|-2-2--2-2-2--2-2-2-----------|
E|-3-3--3-3-3--3-3-3--3--------|--------------------5-5-5--3-|
Bridge End (just before last chorus)
G|-------------------------|
D|-------------------------|
A|---------2-2-2-2---------|
E|-3-3-3-3-----------------|





Ваше мнение



Капча