SONG: Fall Down
ARTIST: Jebediah
ALBUM: Jebediah (2002)
TABBED BY: mikey ([email protected])
TUNING: standard
(low to high: E-A-D-G-B-E)

INTRO (rhythm & lead, w/bagpipes)
E |------------------------------------------------------------------------|
B |------------------------------------------------------------------------|
G |------------------------------------------------------------------------|
D |-----9--9-------------9--9-------------9--9----9----9-9-9-9-9-9-9-9-----|
A |-----9--9-(let ring)--9--9-(let ring)--9--9----9----9-9-9-9-9-9-9-9-----|
E |-----7--7-------------7--7-------------7--7----7----7-7-7-7-7-7-7-7-----|
(rhythm, w/distortion)
E |----------------------------------------------|
B |----------------------------------------------|
G |o--------------9-9-9-9--8-8-8-8--6-6-6-6-----o|
D |o-----9-9-9-9--9-9-9-9--8-8-8-8--6-6-6-6-----o|
A |------9-9-9-9--7-7-7-7--6-6-6-6--4-4-4-4------|
E |------7-7-7-7---------------------------------|
(play x 4)
(lead)
E |----------------------------------------------|
B |------4h5-4p0----------4h5-5h6p5--------------|
G |o--------------6p4-6p4-----------6p4-6p4-----o|
D |o--------------------------------------------o|
A |----------------------------------------------|
E |----------------------------------------------|
(play x 4)

VERSE 1
(rhythm, clean tone)
E |-----------------------------------------------------------------------------------|
B |-----------------------------------------------------------------------------------|
G |o-----------------------------------------9-9-9-9999-9-9-99-9-9-9-9999-9-9-99-----o|
D |o-----9-9-9-9999-9-9-99-9-9-9-9999-9-9-99-9-9-9-9999-9-9-99-9-9-9-9999-9-9-99-----o|
A |------9-9-9-9999-9-9-99-9-9-9-9999-9-9-99-7-7-7-7777-7-7-77-7-7-7-7777-7-7-77------|
E |------7-7-7-7777-7-7-77-7-7-7-7777-7-7-77------------------------------------------|
(play x 4)
(lead, comes in at end of verse only)
E |---------------------------------------------|
B |------4h5-4p0---------4h5-5h6p5--------------|
G |--------------6p4-6p4-----------6p4-6p4------|
D |---------------------------------------------|
A |---------------------------------------------|
E |---------------------------------------------|

PRE-CHORUS
(rhythm, w/distortion)
E |----------------------------------------------|
B |----------------------------------------------|
G |o--------------9-9-9-9--8-8-8-8--6-6-6-6-----o|
D |o-----9-9-9-9--9-9-9-9--8-8-8-8--6-6-6-6-----o|
A |------9-9-9-9--7-7-7-7--6-6-6-6--4-4-4-4------|
E |------7-7-7-7---------------------------------|
(play x 4)
(lead)
E |----------------------------------------------|
B |------4h5-4p0----------4h5-5h6p5--------------|
G |o--------------6p4-6p4-----------6p4-6p4-----o|
D |o--------------------------------------------o|
A |----------------------------------------------|
E |----------------------------------------------|
(play x 4)

VERSE 2
(rhythm, clean tone)
E |-----------------------------------------------------------------------------------|
B |-----------------------------------------------------------------------------------|
G |o-----------------------------------------9-9-9-9999-9-9-99-9-9-9-9999-9-9-99-----o|
D |o-----9-9-9-9999-9-9-99-9-9-9-9999-9-9-99-9-9-9-9999-9-9-99-9-9-9-9999-9-9-99-----o|
A |------9-9-9-9999-9-9-99-9-9-9-9999-9-9-99-7-7-7-7777-7-7-77-7-7-7-7777-7-7-77------|
E |------7-7-7-7777-7-7-77-7-7-7-7777-7-7-77------------------------------------------|
(play x 4)
(lead)
E |-------------------------------------------|
B |------4h5-4p0---------4h5-4p0--------------|
G |o-------------6p4-6p4---------6p4-6p4-----o|
D |o-----------------------------------------o|
A |-------------------------------------------|
E |-------------------------------------------|
(play x 8)

repeat PRE-CHORUS

CHORUS
(rhythm & lead)
E |----------------------------------------------|
B |----------------------------------------------|
G |o--------------9-9-9-9--6-6-6-6--9-9-9-9-----o|
D |o-----9-9-9-9--9-9-9-9--6-6-6-6--9-9-9-9-----o|
A |------9-9-9-9--7-7-7-7--4-4-4-4--7-7-7-7------|
E |------7-7-7-7---------------------------------|
(play x 4)
(rhythm)
E |----------------------------------------------|
B |----------------------------------------------|
G |o--------------9-9-9-9--8-8-8-8--6-6-6-6-----o|
D |o-----9-9-9-9--9-9-9-9--8-8-8-8--6-6-6-6-----o|
A |------9-9-9-9--7-7-7-7--6-6-6-6--4-4-4-4------|
E |------7-7-7-7---------------------------------|
(play x 4)
(lead)
E |----------------------------------------------|
B |------4h5-4p0----------4h5-5h6p5--------------|
G |o--------------6p4-6p4-----------6p4-6p4-----o|
D |o--------------------------------------------o|
A |----------------------------------------------|
E |----------------------------------------------|
(play x 4)

POST-CHORUS
(rhythm, w/bagpipes)
E |------------------------------------------------------------------------------------------|
B |------------------------------------------------------------------------------------------|
G |------------------------------------------------------------------------------------------|
D |------9-------------9--9-------------9--9-----9--9-----9--9-----9----9-9-9-9-9-9-9-9------|
A |------9-(let ring)--9--9-(let ring)--9--9-----9--9-----9--9-----9----9-9-9-9-9-9-9-9------|
E |------7-------------7--7-------------7--7-----7--7-----7--7-----7----7-7-7-7-7-7-7-7------|
(lead)
E |--------------------------------------------------------|
B |------4--(4)h5p4-0-----4--(4)h5p4-0---------------------|
G |o------------------6------------------6--(6)p4h6p4-----o|
D |o------------------------------------------------------o|
A |--------------------------------------------------------|
E |--------------------------------------------------------|
(play x 3)
E |----------------------------------------------|
B |------4h5-4p0----------4h5-5h6p5--------------|
G |---------------6p4-6p4-----------6p4-6p4------|
D |----------------------------------------------|
A |----------------------------------------------|
E |----------------------------------------------|

OUTRO (w/bagpipes)
(rhythm)
E |----------------------------------------------|
B |----------------------------------------------|
G |o--------------9-9-9-9--8-8-8-8--6-6-6-6-----o|
D |o-----9-9-9-9--9-9-9-9--8-8-8-8--6-6-6-6-----o|
A |------9-9-9-9--7-7-7-7--6-6-6-6--4-4-4-4------|
E |------7-7-7-7---------------------------------|
(play x 4)
E |----------------------------------------------|
B |----------------------------------------------|
G |----------------------------------------------|
D |------9---------------------------------------|
A |------9-(let ring, with bagpipes to fade)-----|
E |------7---------------------------------------|
(lead)
E |----------------------------------------------|
B |------4h5-4p0----------4h5-5h6p5--------------|
G |o--------------6p4-6p4-----------6p4-6p4-----o|
D |o--------------------------------------------o|
A |----------------------------------------------|
E |----------------------------------------------|
(play x 4)





Ваше мнение



Капча