Tabbed by John Grantham
[email protected]
i saw jebediah at the cainbridge they rocked... / - slide up
..i got chris's pick and im full stocked. - slide down
i figured out this song after remembering some **** - weird bar timing is 2/4 i think
of the live parts.ive tried to include timing. ~ - vibrato
kevin and chris play basically the same thing
on the album. here goes (#) - play every 4th phrase
normal tuning

verse riff (kevin)
--------------------------------------
----------r---------------------------
----------e---5-/-7--5-/-7--5-------
--5---5---s---------------------------
--5---5---t---------------------------
--3---3-------------------------------

1 + 2 + 3 + 4 +

(chris)
--3---3-------------(3)----------(3)----
--3---3---3~--------------(3)-----------
--4---4---------------------------------
--5---5---------------------------------
--5---5---------------------------------
--3---3---------------------------------

end of verse/pre chorus

-----------------|---------------------|--------------------------------
-----------------|---------------------|---------r----------------------
-----------------|---------------------|---------e---5-/-7--5-/-7--5--
-5-5-5-5-5-5-5-5-|-5-5-5-5-5-5-5-5-----|-5---5---s----------------------
-3-3-3-3-3-3-3-3-|-3-3-3-3-3-3-3-3-----|-5---5---t----------------------
-----------------|---------------------|-3---3--------------------------
1 2 3 4 1 2 3 4 1 + 2 + 3 + 4 +

-----------------|---------------------|-----------------|-----------------
-----------------|---------------------|-----------------|-----------------
-----------------|---------------------|-----------------|-----------------
-5-5-5-5-5-5-5-5-|-5-5-5-5-5-5-5-5-----|-5-5-5-5-5-5-5-5-|-7-7-7-7-4-5-4---
-3-3-3-3-3-3-3-3-|-5-5-5-5-5-5-5-5-----|-3-3-3-3-3-3-3-3-|-5-5-5-5-2-3-2---
-----------------|-3-3-3-3-3-3-3-3-----|-----------------|-----------------
1 2 3 4 1 2 3 4 1 2 3 4 1 2 3 4

chorus

-----------------|--------|---------------------------
-----------------|--------|---------------------------
-----------------|-4-5-4--|---------------------------
-5-5-5-5-3-3-3-3-|-4-5-4--|---------------------------
-5-5-5-5-3-3-3-3-|-2-3-2--|---------------------------
-3-3-3-3-1-1-1-1-|--------|---------------------------

1 + 2 + 3 + 4 + *****

end on G power chord
chris plays 15 on the high e
email me for questions or comments [email protected]





Ваше мнение



Капча