Love Will Never Do (Without You) BY Janet Jackson
Me and my boy Chuck Were in Music class while we figure this out for ya'll any questions e-mail me at [email protected]
TablEdited by
Tuning : E A D G B E Time Signature: 4/4
| | | | | | | | | | | | |
| | |
|--------------------------------|--------------------------------|--------------------------------|--------------------------------|
|------------4-------------------|----4---------------------------|4---------------------4---------|------------2---1---------------|
|--------1-----------------------|1---------------------------1---|------------------1-------------|----1---3-----------3---2---3---|
|----3-----------------------3---|------------------------3-------|--------------3-----------------|3-------------------------------|
|4-------------------------------|--------------------4-----------|--------------------------------|--------------------------------|
|------------------------1-------|--------------------------------|----------1---------------------|--------------------------------|
| | | | | | | | | | | | |
| | |
|--------------------------------|--------------------------------|--------------------------------|--------------------------------|
|1-------------------------------|--------------------------------|--------------------------------|--------------------------------|
|----3-------1-------------------|--------------------------------|--------------------------------|--------------------------------|
|--------------------------------|--------------------------------|--------------------------------|--------------------------------|
|--------------------------------|--------------------------------|--------------------------------|--------------------------------|
|--------------------------------|--------------------------------|--------------------------------|--------------------------------|
| | | | | | | | | | | | |
| | |
|--------------------------------|--------------------------------|--------------------------------|--------------------------------|
|--------------------------------|--------------------------------|--------------------------------|--------------------------------|
|--------------------------------|--------------------------------|--------------------------------|--------------------------------|
|--------------------------------|--------------------------------|--------------------------------|--------------------------------|
|--------------------------------|--------------------------------|--------------------------------|--------------------------------|
|--------------------------------|--------------------------------|--------------------------------|--------------------------------|
| | | | | | | | | | | | |
| | |
|--------------------------------|--------------------------------|--------------------------------|--------------------------------|
|--------------------------------|--------------------------------|--------------------------------|--------------------------------|
|--------------------------------|--------------------------------|--------------------------------|--------------------------------|
|--------------------------------|--------------------------------|--------------------------------|--------------------------------|
|--------------------------------|--------------------------------|--------------------------------|--------------------------------|
|--------------------------------|--------------------------------|--------------------------------|--------------------------------|
Created with TablEdit http://www.tabledit.com/




Ваше мнение



Капча