Just a little while /Janet jackson
This song is a 110 percent right.Any problems,feedback,compliments or complaints sent
to [email protected]
Stadart tuning
e---------------------------------------|
b---------------------------------------|
g-5-x-5-x-5-----------------------------|
d-5-x-5-x-5---3-x-3-x-3-----------------|
a-3-x-3-x-3---3-x-3-x-3-----------------|
e-------------1-x-1-x-1-----------------|
e-----------------------------------------|
b-----------------------------------------|
g-5-x-5-x-5-------------------------------|
d-5-x-5-x-5---3-xxxxx--3--5---------------|
a-3-x-3-x-3---3-xxxxx--3--5---------------|
e-------------1-xxxxx--1--3---------------|
play the mute part a lil faster.Have a nice day!




Ваше мнение



Капча