-------------------------------------------------------------------------------
up the beach - janes addiction
-------------------------------------------------------------------------------
Tabbed by:Mr. xxx
Email:
Tuning:standard eadgbe
I've seen some sorry tabliture done on this song. This is as complete as your
going to get since Janes addiction does not publish tab books and being that Dave
Navarro is one of the best guitarists around I'd say that staying up all night to
make this tab was well worth it. This is one hell of a song to tab out. Fasten
your seatbelts because Dave rips through this song. Espeacially on the second
solo. My fingers hurt after finnaly getting the time and rythem to that part of
the song. This is a beautiful song so I hope you enjoy and I hope they post this
on the site. I know alot of people have been waiting for this one. Have fun!!!

e|---------------------------------------------------------------------------|
B|---------------------------------------------------------------------------|
G|--7-------7/9-9/10hold-10//12-12///16----7---9-7-9-7---9-7-11-7------------|
D|--7--------------------------------------7---9-5-9-7---9-7-11-7------------|
A|--5--------------------------------------5---7-5-7-5---7-5-9--5------------|
E|---------------------------------------------------------------------------|
e|---------------------------------------------------------------------------|
B|---------------------------------------------------------------------------|
G|--7-----------7---7---7-7---7---7---7-7---7--9--9//11--11---11-11----------|
D|--7hold-------x---x---x-x---x---x---x-x---x-----x--x---x----x--x-----------|
A|--5-----------5---5---5-5---5---5---5-5---5-----7--9---9----9--9-----------|
E|---------------------------------------------------------------------------|
e|---------------------------------------------------------------------------|
B|---------------------------------------------------------------------------|
G|--11---11---11-11---11--12-12/14--14-14---14--12h14p1211-12-11-9-9h11p97-|
D|--x----x----x--x----x---x---------x--x----x--------------------------------|
A|--9----9----9--9----9---10--------12-12---12-------------------------------|
E|---------------------------------------------------------------------------|
e|-------------------15-14-12-------------------------------------15-14-12---|
B|----------------------------15-14-12---------------------------------------|
G|-7-5-4-4/542-----------------------14-12-11------------------------------|
D|----------------------------------------------14-12-11-12-14---------------|
A|-------------------------------------------------------------12------------|
E|---------------------------------------------------------------------------|
e|---------------------------------------------------------------------------|
B|15-14-12-------------------------------------------------------------------|
G|---------14-12-11-----------12-11-7-6~~~~-12-11-7-6~~~~-12-11-12-14--------|
D|------------------14-12-11--x--x--x-x~~~~-x--x--x-x~~~~-x--x--x--x---------|
A|----------------------------10-9--5-4~~~~-10-9--5-4~~~~-10-9--10-12--------|
E|---------------------------------------------------------------------------|
solo 1
e|---------15^^-14---12---------15^-14--12---15-14-15/17~-15---15-15-14------|
B|---------------------15-14~~~------------15--------------------------------|
G|---------------------------------------------------------------------------|
D|---------------------------------------------------------------------------|
A|---------------------------------------------------------------------------|
E|---------------------------------------------------------------------------|
~~~
e|14p12p10h12-14-15-14-15/17-17~~-19-17-19-15-17-15h17p15-14~~~~15//17~~~20^-|
B|---------------------------------------------------------------------------|
G|---------------------------------------------------------------------------|
D|---------------------------------------------------------------------------|
A|---------------------------------------------------------------------------|
E|---------------------------------------------------------------------------|
e|-15-14-12---------------------------------------15-14-12-------------------|
B|----------15-14-12---------------------------------------15-14-12----------|
G|--------------------14-12-11--------------------------------------14-12-11-|
D|-----------------------------14-12-11-12-14--------------------------------|
A|--------------------------------------------12-----------------------------|
E|---------------------------------------------------------------------------|
solo 2
e|---------------------------------------------------------------------------|
B|---------------------------------------------------------------------------|
G|----------12-11-7-6~~~-12-11-7-6~~~------14~-14~-12-14-16-14-12-16-14-16---|
D|-14-12-11-x--x--x-x~~~-x--x--x-x~~~----------------------------------------|
A|----------10-9--5-4~~~-10-9--5-4~~~----------------------------------------|
E|---------------------------------------------------------------------------|
e|---------------------------------------------------------------------------|
B|14--14-15-14h15h17-15-14--17-15-14--17-15-14--15h17p15-14-----15~~~-14-----|
G|--16--------------------16--------16--------16-----------16-14--------16---|
D|---------------------------------------------------------------------------|
A|---------------------------------------------------------------------------|
E|---------------------------------------------------------------------------|
e|---------------------------------------------17-14--12-14--------14--------|
B|-14h15p14-----------------------------------------15-----15-1412--15-14---|
G|---------16-14-12-11-12-14-12-11-------------------------------------------|
D|--------------------------------14-12-11-12--------------------------------|
A|---------------------------------------------------------------------------|
E|---------------------------------------------------------------------------|
*at asterik depress bar
e|---------------------------------------------------------------------------|
B|12-------------------------------------------------------------------------|
G|--14-12-14-12--11-------------------------------------------7~~9-7-9-7-----|
D|-------------14--12-11--------------------------------------x~~------------|
A|----------------------12~~~~-14-12-9~~~-1210-9~~~*~~7/15--5~~---7--------|
E|---------------------------------------------------------------------------|
e|---------------------------------------------------------------------------|
B|---------------------------------------------------------------------------|
G|-9-11----12-11-7-6~~~-12-11-7-6~~~~~~~-------------------------------------|
D|-x-------x--x--x-x~~~-x--x--x-x~~~~~~~-------------------------------------|
A|-7----9--10-9--5-4~~~-10-9--5-4~~~~~~~-------------------------------------|
E|---------------------------------------------------------------------------|

| / slide up
| slide down
| h hammer-on
| p pull-off
| ~ vibrato
| + harmonic
| x Mute note
===============================================================================





Ваше мнение



Капча