Jane's Addiction
The Riches
From 'Strays'

Tuned down half a step
intro-rhythm isnt exact but its a general idea
eb--------------------------------------------------------------------
bb--------------------------------------------------------------------
gb--------------------------------------------------------------------repeat
Db--------------------------------------------------------------------
Ab--6/7-7-7-7-7--7--7--9-9-9-9--5--5-5--11--11-11-11/1211--11-11-11-5
Eb--0-0-0-0-0-0--0--0--0-0-0-0--0--0-0--0---0--0--0--0--0---0--0--0--0

-----------------------------
-----------------------------
-----------------------------repeat
-----------------------------
--2--2--4--4-2--2-2-2--2-2-2-
--3--3--5--5-0--0-0-0--0-0-0-

verse
eb-------------------------------------------
bb-------------------------------------------
gb-------------------------------------------
Db-------------------------------------------
Ab--2--2-2-2--2--2-2-2---7--7-7-7--4--4-4-4--
Eb--0--0-0-0--3--3-3-3---8--8-8-8--5--5-5-5--

pre-chorus
eb-------------------------------
bb--1------------1--1------------
gb--0------------0--2------------
Db--2------------2--2------------
Ab--3------------3--0------------
Eb-------------------------------

chorus
eb-------------------------------------------------------
bb-------------------------------------------------------
gb--9--9-9-9---12-12-12-12---17-17-17-17---14-14-14-14---
Db-------------------------------------------------------
Ab--7--7-7-7---10-10-10-10---15-15-15-15---12-12-12-12---
Eb-------------------------------------------------------

middle break
eb--2-----/7---5--
bb--3-----/8---6--
gb--2-----/7---5--
Db----------------- repeat
Ab-----------------
Eb-----------------

thats the basis of it, i havent manage to get the solo done, but its mostly
improvised on Eb minor pentatonic.





Ваше мнение



Капча