#----------------------------------PLEASE NOTE---------------------------------#
#This file is the author's own work and represents their interpretation of the #
#song. You may only use this file for private study, scholarship, or research. #
#------------------------------------------------------------------------------##
From: [email protected] (Enrico_Giuseppe BETTIO)
MY TIME -Janes Addiction
-------
transcribed by [email protected]
Guitar: Something like this repeats through-out, I like to do
------ a bit more strumming than indicated. I had trouble trying
to work out the stuff played over the C chord so I settled
for whats tabbed bellow.
Dsus D Dsus D Dsus2 D Dsus D
E-||--3---2--------3---2------|-0-2-2--------3-2-2---------||
B-||--3---3--------3---3------|-3---3--------3---3---------||
G-||o-2---2--------2---2------|-2---2--------2---2--------o||
D-||o-0---0--------0---0------|-0---0--------0---0--------o||
A-||--------------------------|----------------------------||
E-||--------------------------|----------------------------||
C(add9) Csus(add9) C C(add9) Csus(add9)
E-|-------0----------1----------------|-------0------------1--1-1-1-1-1-1-|
B-|-------3------------3---1-------1--|-------3------------3--3-3-3-3-3-3-|
G-|-0---0-0-----0--------0-----0------|-0---0-0-----0------0--0-0-0-0-0-0-|
D-|-2---2-2---2---2--------------2----|-2---2-2---2---2-------2-2-2-2-2-2-|
A-|-3---3-3---------------------------|-3---3-3---------------3-3-3-3-3-3-|
E-|-----------------------------------|-----------------------------------|
Harmonica: I worked this out on a cheezy C-scale harmonica. I think
--------- most cheezy harmonicas are in C. I didnt really know how to
present it so I tabbed for guitar and underneath I wrote
the notes and whether its a draw (v) or a blow (^) on my
(and most as far as I know) harmonica. I think it might actually
be done on a blues harmonica but I dont know much about those.
It sounds better on harmonica than guitar so if you can, get
one and find where the notes are using a guitar tuner or a book.
INTRO & FIRST SOLO:
D D
E-|----5-5-5--5-5--5-5--5--5-5-5---|-5-----------------------------|
B-|----------8----8----8--8------8-|------8-6----------------------|
G-|-7------------------------------|-------------7-----5-7---7-----|
D-|--------------------------------|-------------------------------|
A-|--------------------------------|-------------------------------|
E-|--------------------------------|-------------------------------|
D A A A GA A GA A GA GA A A G A G F D C D D
v v v v ^v v ^v v ^v ^v v v ^ v ^ v v ^ v v
D D
E-|----5--------5------7-----5-~~--|----5--------------------------|
B-|----------8-----------8---------|--8-----8-6---------------6----|
G-|-7------------------------------|--------------7-----5-7--------|
D-|--------------------------------|-------------------------------|
A-|--------------------------------|-------------------------------|
E-|--------------------------------|-------------------------------|
D A G A B G A ~~ G A G F D C D F
v v ^ v ^ ^ v ^ v ^ v v ^ v v
C C
E-|--------------------------------|-------------------------------|
B-|-5---------------------5h8------|-5-8-5-------------------------|
G-|---7-5--------------------------|-------------------------------|
D-|--------------------------------|-------------------------------|
A-|--------------------------------|-------------------------------|
E-|--------------------------------|-------------------------------|
E D C /E/G E G E
^ v ^ ^ ^ ^ ^ ^
FINAL SOLO:
D D
E-|------------------------|-------------------------------------|
B-|-6--6---5---6--5--------|-------------------------------------|
G-|------------------7--5--|-7-7-5-7-7-5-7-5-7-5-7-5-7-5-7-7-7-5-|
D-|------------------------|-------------------------------------|
A-|------------------------|-------------------------------------|
E-|------------------------|-------------------------------------|
F F E F E D C D D C D D C D C D C D C D C D D D C
v v ^ v ^ v ^ v v ^ v v ^ v ^ v ^ v ^ v ^ v v v ^
D D
E-|----5-5--~~~--------7---5-----5-|---5---------------------------|
B-|----------------------8-----8---|-8------8-6---------------6----|
G-|--------------------------------|--------------7-----5-7--------|
D-|--------------------------------|-------------------------------|
A-|--------------------------------|-------------------------------|
E-|--------------------------------|-------------------------------|
A A B G A G A G A G F D C D F
v v ^ ^ v ^ v ^ v ^ v v ^ v v
C C D
E-|--------------------------------|------------------------------|------|
B-|-5---------------------5h8------|-5-8-5---------------5--------|------|
G-|---7-5--------------------------|-------------------------5----|-7----|
D-|--------------------------------|------------------------------|------|
A-|--------------------------------|------------------------------|------|
E-|--------------------------------|------------------------------|------|
E D C /E/G E G E E C D
^ v ^ ^ ^ ^ ^ ^ ^ ^ v
INTRO: D D D D C C
D
Yeah, the rain came
I said hey buddy,
Buddy the streets are a snakeskin
I belong
Out there walking
Nobody's stopping to bother me
C
They hide
Outside the ceiling's
D
Crying
Listen to the sound
Of the gutters running
Wash this dirty town
All fronts and no backs
Give me my time
C
Let me be outside
Under the ceiling is
D
Crying X2
Yeah all over me /
C
Ah Ahhhhhh....
SECOND HARMONICA SOLO
D
Outside you know
I listen to the sounds
of the gutters running
wash that dirty town
all fronts and no backs
Give me my time
C
Let me be outside
Under the ceilings
D
Crying X2
Yeah all over me /
C
Ah ahhh...
FINAL HARMONICA SOLO
I hope there weren't too many mistakes..
bye
eric


Ваше мнение



Капча