My Cat's Name Is Maceo
Jane's Addiction
KETTLE WHISTLE
Tabbed by Larry
~ ==> Extend note time
NOTE ==>Each BLOCK ( |--X--| ), no matter how long it is, represents 4
times.
*INTRO (1 time)
E:|-3-1-0-1-0---|-------------|
G:|-----------3-|-3-1-0-1-0---|
A:|-------------|-----------3-|
D:|-------------|-------------|
E:|-----------|-----------|-----3-1~~-|-------|
G:|---0----1~~|---3-3-----|-----------|-1-3---|
A:|-1----1----|-1-----1-1-|-3-1-------|-----1-|
D:|-----------|-----------|-----------|-------|
*WHOLE SONG (play this during... the whole song)
E:|-----------|-----------|-----3-1~~-|-------|
G:|---0----1~~|---3-3-----|-----------|-1-3---|
A:|-1----1----|-1-----1-1-|-3-1-------|-----1-|
D:|-----------|-----------|-----------|-------|
Comments, suggs... [email protected]
AMOR Y PAZ





Ваше мнение



Капча