-------------------------------------------------------------------------------
Jane says - Jane's Addiction
-------------------------------------------------------------------------------
Artist: Jane's Addiction
Song: Jane says
Tabbed by: Zero is great man
Tuning: Standard: Right: EADGBe
Guitar Chord Loop: Gm, A
Gm A
e|-x----------------0-|
B|-x----------------2-|
G|-x----------------2-|
D|-5----------------2-|
A|-5----------------0-|
E|-3----------------x-|
Rhytem:
e|-x-x--0-0-0-0-|
B|-x-x--2-2-2-2-|
G|-x-x--2-2-2-2-|
D|-5-5--2-2-2-2-|
A|-5-5--0-0-0-0-|
E|-3-3--x-x-x-x-|
| / slide up
| slide down
| h hammer-on
| p pull-off
| ~ vibrato
| + harmonic
================================================================================





Ваше мнение



Капча