Artists: Jamiroquai
Title: Travelling Without Moving
Album: Travelling Without Moving
Bass Player: Stuart Zender
This Transcription: Lawrence Docherty
Groovy bass at its best! Just make sure and keep your playing solid,
specially in the 'speed-freak' section, where you have to keep playing
a tricky riff for a while.
intro (repeated a couple of times)
G--|--------------------------------------------------------------------
D--|--------------------------------------------------------------------
A--|----------------------------------------------5h7--7-7-7--5h7-7-7-7-
E--|--3p0-0-0--0--3p0-0-0--0--3p0-0-0--3/5-6-7--------------------------
-------------------------------------------------------------|
-------------------------------------------------------------|
--5h7--7-7-7--5h7-7-7-7--5h7--7-7-7--5--7-7-7--5h7--7-7-7----|
-------------------------------------------------------------|
Chorus (repeated a few times - keep the notes well separated)
|-----------6----6---6-----------------11---11---9---6--
|--------6------------------4---4-----------------------
|--4--7--------4---4-----------------9----9----7---4----
|-------------------------2---2-------------------------
-----------8---------------6---6------7--------------|
--------8-------6---6---------------------7---4---7--|
--6--9-------------------4---4------5----------------|
--------------4---4---------------------5---2---5----|
Going into the speed-freak section, play:
|----------------------------|
|----------------------------|
|--4--3--2--1--0h1--1--1--0--|
|----------------------------|
...Then that essential speed-freaky riff:
|----------------------------------------------------------
|--------------5------------------------5555-7-7/9-5-------




Ваше мнение



Капча