#----------------------------------PLEASE NOTE--------------------------------#
#This file is the author's own work and represents their interpretation of the#
#song. You may only use this file for private study, scholarship, or research.#
#-----------------------------------------------------------------------------#
Jamiroquai
Love Foolosophy
Tabbed by Andres (www.geocities.com/clubtabz)
This is a really cool song by Jamiroquai!
INTRO: play the VERSE once
VERSE
E-----------------------------------------------------
B--6/7----7---7-7--xx-7--x-7h8--8-8---8-8--xx-8-------
G--6/7----7---7-7--xx-7--x-7----7-7---7-7--xx-7-------
D-----------------------------------------------------
A-----------------------------------------------------
E-----------------------------------------------------
E-----------------------------------------------------
B--7h8--8-8---8-8--xx-8----6/7--7-7---7-7--xx-7--x----
G--7----7-7---7-7--xx-7----6/7--7-7---7-7--xx-7--x----
D-----------------------------------------------------
A-----------------------------------------------------
E-----------------------------------------------------
E-----------------------------------------------------
B--6/7----7---x-7--xx-7----7h8--8-8---x-8--xx-8-------
G--6/7----7---x-7--xx-7----7----7-7---x-7--xx-7-------
D-----------------------------------------------------
A-----------------------------------------------------
E-----------------------------------------------------
E-----------------------------------------------------
B--7h8--8-8---x-8--xx-8----6/7--7-7---x-7--xx-7-------
G--7----7-7---x-7--xx-7----6/7--7-7---x-7--xx-7-------
D-----------------------------------------------------
A-----------------------------------------------------
E-----------------------------------------------------
Second half of VERSE (with wah-wah, palm muted)
E-----------------------------------------------------------
B-----------------------------------------------------------
G-----------------------------------------------------------
D-----------------------------------------------------------
A-----5-5--5h7--5----------------------------5-5--5h7--5----
E--7---------------------5---5-5-5-7------7-----------------
CHORUS
Play this 7 times
E--14----7-7---7-7---x-x-x----
B---------x-x---x-x---x-x-x----
G---------4-4---4-4---x-x-x----
D------------------------------
A------------------------------
E------------------------------
Then this
E--14----7-7---7-7---7-7------
B---------x-x---x-x---x-x------
G---------4-4---4-4---4-4------
D------------------------------
A------------------------------
E------------------------------
Again first part 7 times and then this
E--14----7-7---7-7---9-9------
B---------x-x---x-x---x-x------
G---------4-4---4-4---6-6------
D------------------------------
A------------------------------
E------------------------------
FINAL SOLO (H=harmonics)
E---------------------12b14r12--10h12p10-12b14r12----------------------------
B--12-12---12--15-------------------------H--------12p10-12b15r12------------
G---------------------------------------------------------H------------------
D----------------------------------------------------------------------------
A----------------------------------------------------------------------------
E----------------------------------------------------------------------------
E----------------------------------------------------------------------------
B--10h12p10----------10b12--r10------10b12--r10--------15b17r15--12p10h12----
G------------------------------------------------------x---------------------
D-------------------------------------------------------H--------------------
A----------------------------------------------------------------------------
E----------------------------------------------------------------------------
That's it!
Mail me to [email protected]




Ваше мнение



Капча