HIGH TIMES GUITAR
by Jamiroquai
Tabbed by Dalph (from the Dalton-5 band - Brussels)
E-mail = Ldelfosse @levi.com
Legend
------
h = hammer-on
p = pull-off
b = bend
r = bend release
/ = slide up/down
= natural harmonic
[5] = artifical harmonic
~ = vibrato
tr = trill

You don't need your ... You're a rock star ...
E|--||---------|----------||----------|---------||-
B|--||---------|----------||*---------|--------*||-
G|--||---------|----------||----------|---------||-
D|--||---------|----------||----------|---------||-
A|--||---------|----------||*---------|--------*||-
E|--||---------|----------||----------|---------||-
bass enters Riff 1 heavy dist
Dont' you know that last night
...is your guitar
E|----------------------------------------|----------------------|
B|--11-10-8--8-11-10--x-x-8-8-x-x-8-8-x-x-|x-x-x-----------------|
G|--11-10-8--8-11-10--x-x-8-8-x-x-8-8-x-x-|x-x-x-----------------|
D|----------------------------------------|----------------------|
A|----------------------------------------|----------------------|
E|----------------------------------------|----------------------|

Chorus
E||-----------|--------------|------------------|---------------------------------------|
B||*----------|--------------|------------------|------7-------7-------7-------7-------*|
G||--9-7---7--|-----9-7---6--|-----10--8----8~--|--------9-7-----9-7-----9-7-----9-7----|
D||------9----|---------9----|-----------10---10|------------9-------9-------9-------9--|
A||*----------|--------------|------------------|--------------------------------------*|
E||-----------|--------------|------------------|---------------------------------------|

Solo Guitar
E||---------------------------------|---------------------------------------------------
B||-----------8-10b12---8~--11-8-10-|---10b12--r8---------------------------13b15-------
G||-----7-8-9-------------9---------|-------------9-7-----------------------------------
D||--/9-----------------------------|-----------------9-8-7--------9h10h11~-------------
A||---------------------------------|-----------------------10--10----------------------
E||---------------------------------|---------------------------------------------------
(this bit is really messy ! I did my best)
E|----------------------------------------------------------------------------
B|-12-15--12-14-12---------------------12b14----------------------------------
G|-12-----12-------12-12-----12h14p12--12b14-14-12----12h14p12-------------12-
D|-----------------12-12--14-12h14p12--------14-12-14-12h14p12-------12-14----
A|------------------------14-----------------------14------------/14----------
E|----------------------------------------------------------------------------




Ваше мнение



Капча