Jamiroquai
Emergency On Planet Earth
*************************

Transcribed by Sampo Vesa

played w/variations throughout

first Riff A (verse)
time
-------------|-------------------8-------------|
-------------|---5-------3---------------------|
-------------|-----------------6-------5---5---|
-3b4---3b4---|-3-------1-----------------------|

|---5-------7-------8-------------|
|---------------------------------|
|-3-------5-------6---------------|
|-------------------------4---4---|

Chorus & bass interlude

|-----------------3--(5)-(5)--5---|
|---5-------7---------------------|
|---------------1---3---3---3-----|
|-3------5------------------------|

|---7-------8--------(6)-(6)-(6)--|
|-----------------6---------------|
|-5------6----------4---4---4-----|
|---------------4-----------------|

|-----------------3--(5)-(5)--5---|
|---5-------7---------------------|
|---------------1---3---3---3-----|
|-3------5------------------------|

|---7-------8--------(6)-----(8)--|
|----------------(6)-----(8)------|
|-5------6----------4-------6-----|
|---------------4-------6---------|

() - indicates notes are not played
every time when chorus riff is
recalled

Guitar fig.:
------------

|---------------------------------|---------------------------------|
|-8-8-8-8-x-x-8-8-8-8-x-x-8-8-8-8-|-x-x-8-8-8-8-x-x-6---x-x-6---x-x-|
|-7-7-7-7-x-x-7-7-7-7-x-x-7-7-7-7-|-x-x-7-7-7-7-x-x-5---x-x-5---x-x-|
|---------------------------------|-----------------4---x-x-4---x-x-|
|---------------------------------|-----------------5---x-x-5---x-x-|
|---------------------------------|---------------------------------|




Ваше мнение



Капча