Jamiroquai
Canned Heat
Album: Synkronized
Tabbed by Eric Siljander < [email protected] >
Hey All! Here's a few things to keep in mind about this tab. The
song is played on a five string, and this tab is arranged for a
four string, so in other words, it won't sound perfect. Its not
perfect either for that matter, but it should put you on the right
track. On Figs.2&3 where I have put dead notes, just try variations
cos thats all Nick is doin'. Have Fun;)

Intro
G-|-------------------|
D-|-------------------|
A-|--8--5--------6----|
E-|--------6--3-------|
Fig.1
|-----|------------------------------|
|-----|------------------------------|
|--5--|--0h4h5--0h4h5--0h4h5--0h4h5--|
|-----|------------------------------|
Verse 1
|--------------------------------------|
|--------------------------------------|
|-----------------------------3--------|
|---------------------------------5----|
|--------------------------------------|
|-----8---8---8---8---8-8---8---8---7--|
|--------------------------------------|
|--6----6---6---6---6-----6---6---5----|
|--------------------------------------|
|-----5---5---5---5-5---5---5---5---7--|
|--------------------------------------|
|--3----3---3---3-----3---3---3---5----|
|--------------------------4---5---6--|
|-----8----8---8---8---8--------------|
|------------------------2---3---4----|
|--6----6---6---6---6-----------------|
|----7---7---7---7---7---10---7-------|
|---------------------------------10--|
|--5---5---5---5---5---8----5---------|
|-------------------------------8-----|
|-------------------------7-----------|
|----8---8---8---8---8--------8----7--|
|-----------------------5-------------|
|--6---6---6---6---6--------6----5----|
|-------------------------------------|
|-----5---5---5---5---5---5---5----7--|
|-------------------------------------|
|--3----3---3---3---3---3---3----5----|
|--------------------------4---5---6--|
|-----8---8---8---8---8---------------|
|------------------------2---3---4----|
|--6----6---6---6---6-----------------|
Chorus
||------7------------------|-----------------5-----6---||
||*----------------8-------|-----5-----5--------------*||
||*--5---------------------|--------------3-----4-----*||
||---------5--5/6-------x--|--3-----3------------------||
Verse 2
|----7--5h7---7--5h7---7--5h7---7---5--|
|--------------------------------------|
|--5--------5--------5--------5---3----|
|--------------------------------------|
|--------------------------------------|
|----8--6h8---8--6h8---8--6h8---8---7--|
|--------------------------------------|
|--6--------6--------6--------6---5----|
|--------------------------------------|
|----5--3h5---5--3h5---5--3h5---5---7--|
|--------------------------------------|
|--3--------3--------3--------3---5----|
|---------------------------4---5---6--|
|----8--6h8---8--6h8---8---------------|
|-------------------------2---3---4----|
|--6--------6--------6-----------------|
|----7--5h7---7--5h7---7---10---7------|
|-----------------------------------7--|
|--5--------5--------5---8----5--------|
|---------------------------------5----|
|--------------------------------------|
|----8--6h8---8--6h8---8--6h8---8---7--|
|--------------------------------------|
|--6--------6--------6--------6---5----|
|--------------------------------------|
|----5--3h5---5--3h5---5--3h5---5---7--|
|--------------------------------------|
|--3--------3--------3--------3---5----|
|---------------------------4---5---6--|
|----8--6h8---8--6h8---8---------------|
|-------------------------2---3---4----|
|--6--------6--------6-----------------|
Verse 3
|----7--5h7---7--5h7---7--5h7---7---5--|
|--------------------------------------|
|--5--------5--------5--------5---3----|
|--------------------------------------|
|--------------------------------------|
|----8--6h8---8--6h8---8--6h8---8---7--|
|--------------------------------------|
|--6--------6--------6--------6---5----|
|--------------------------------------|
|----5--3h5---5--3h5---5--3h5---5---7--|
|--------------------------------------|
|--3--------3--------3--------3---5----|
|---------------------------4---5---6--|
|----8--6h8---8--6h8---8---------------|
|-------------------------2---3---4----|
|--6--------6--------6-----------------|
|----7--5h7---7--5h7---7---10---7------|
|----------------------------------10--|
|--5--------5--------5---8----5--------|
|---------------------------------8----|
|---------------------------7----------|
|----8--6h8---8--6h8---8--------8---7--|
|-------------------------5------------|
|--6--------6--------6--------6---5----|
|--------------------------------------|
|----5--3h5---5--3h5---5--3h5---5---7--|
|--------------------------------------|
|--3--------3--------3--------3---5----|
|---------------------------4---5---6--|
|----8--6h8---8--6h8---8---------------|
|-------------------------2---3---4----|
|--6--------6--------6-----------------|
Fig.2
|----7---------------------------------|
|--------2---3---5--/7~~--x--x-----x---|
|--5----------------------------x------|
|------0---1---3-----------------------|
Fig.3
|--------------------------------------|
|----2---4---5---7--/9~~--x--x-----x---|
|-------------------------------x------|
|--0---2---3---5-----------------------|
Fig.4
|--------------------------------------|
|----7----2----3-----------------------|
|--------------------------------------|
|--5----0----1-------------------------|

SONG STRUCTURE
--------------
Intro
Fig.1 [ x 10 ]
Verse 1
Chorus [ x 4 ]
Verse 2
Chorus (w/variations) [ x 8 ]
Fig.1 [ x 8 ]
Verse 3
Chorus (w/variations) [ x 4 ]
Fig.2 (w/variations) [ x 4 ]
Fig.3 (w/variations) [ x 8 ]
Fig.2 (w/variations) [ x 8 ]
Fig.4
Chorus (w/variations) [ x 8 ]
Fig.3 (w/variations) [ Fade Out ]




Ваше мнение



Капча