JAMIROQUAI
Black Capricorn Day
Album: Sinkronized
Played by: Nick Fyffe
Tabbed by: Fjon ([email protected])
Verse
G|-------------|----------------------|
D|-------------|-----------------5----|
A|7-7--5-7-5-7-|7-7-4-4-5----5-7---7-5|
E|-------------|-----------7----------|
Chorus
G|-----------------------|----------------------|
D|-----------------------|-----------------5----|
A|7-7-7-------7-7-7------|7-7-4-4-5----5-7---7-5|
E|------(0)-0-------(0)-0|-----------7----------|
Fig. 1
G|--7-5h7---7-5h7-|--5-5h7-----5--567--|-----4-5-|--------------|
D|----------------|4-------5-67--7-----|---7-----|--3---3-3/5---|
A|5-------7-------|------------------5-|x5-------|5---5-------3-|
E|----------------|--------------------|---------|--------------|
Fig. 2
G|-----9--6|----11--9--6|----11--9--6|----11--9--6|
D|---------|------------|------------|------------|
A|-/4------|-/4---------|-/4---------|-/4---------|
E|---------|------------|------------|------------|
NOTE: Bits of Fig. 1 may not be completely correct; feel free to
change them. There are *a lot* of variations in this part,
I'm not sure I've got them right so thats why I haven't tabbed them.
Have fun!




Ваше мнение



Капча