ok , check this out . All the tabs for this song on here suck, it made me sick to see all the tabs , and none of them right,so , if you wanna know how to play it , here it goes...
guitar 1 capo III
the chords in parentheses are chord names resmpective to capoed guitar.
guitar 2 ( tabbed portion is not capoed )
E|--------5----------3-----------0h2--0----2----0-------------------0----0---------|
B|----------5----------3---------3----3----3----0h2-----------------3----2h0-------|
G|---4/6------6/4--------4-------2---------2----2--------2----------2---------2----|
D|-------------------------0-------------------------------------------------------|
A|---0------------------------------------------0-----0------0--0------------------|
E|------------0--------------------------------------------------------------------|
E|--0----------------------------------------------------2-------------------------|
B|--0h2------2------0--------------------------3--------------3----------3---------|
G|-------2----------1------1----------------0-----------------------0-----------0--|
D|---------------------2---------0------0-----------0------------------------------|
A|--0-----------0------------------------------------------------------------------|
E|------------------0---------0-------3-----------3---3-----3----3-----3----3------|
(A) (G/E) (D) (A type2)
E|-----------5------------3----------------------------2--------------0--------0---|
B|-----------------5-----------3-----------------------3--------------0h2----------|
G|-------6-------------------------4-------------2----------2---------2---2--------|
D|------------------------------------------0--------------------------------------|
A|--0------------------------------------------------------------0-----------------|
E|------------------------0--------------------------------------------------------|
Just yesterday morning they let me know your were gone
(E) (Gmaj7)
E|--0-----------0------------------------------------------------2-----------------|
B|--0h2----------------------0--------0------------------3----------3--------3-----|
G|--2-----2-----------2------------1-----------------0---------0---------0-------0-|
D|------------------------------------------------0--------------------------------|
A|--0------------------------------------------------------------------------------|
E|---------------------------0---------------3--------------3----3----3----3---3---|
Suzanne the plans the made put an end to you
(A) (G/E) (D) (Atype2)
I walked out this morning and I wrote down this song

(E) (Gmaj7)
I just cant remember who to send it to.

(D) (D/C#) (Bm7) (D/E) (A)
E|-2----------------2----------------------------------0--------0---0----------|
B|-3----------------3----------------------------------0h2------0---0h2----2---|
G|-2----------------2----------------------------2-----2----2-------2---2-----2|
D|-0---------------------------------------------2-----------------------------|
A|-----4------------2----------------------------0-----------------------------|
E|----------------------------0------------------------------------------------|
I've seen fire and I've seen rain I've seen
(D) (D/C#) (Bm7) (D/E0 (A)
sunny days that thought would never end
(D) (D/C#) (Bm7) (D/E) (A)
I've seen lonely times when I could not find a friend

(G) (D/F#) (E7(sus4)) (Em7) (Asus2)
but I always thought that I'd see you again. Wont you

(A) (G/E) (D) (A type2)
E|-----------5------------3----------------------------2--------------0--------0---|
B|-----------------5-----------3-----------------------3--------------0h2----------|
G|-------6-------------------------4-------------2----------2---------2---2--------|
D|------------------------------------------0--------------------------------------|
A|--0------------------------------------------------------------0-----------------|
E|------------------------0--------------------------------------------------------|
look down upon me Jesus, you gotta help me make a stand

(E) (Gmaj7)
E|--0-----------0------------------------------------------------2-----------------|
B|--0h2----------------------0--------0------------------3----------3--------3-----|
G|--2-----2-----------2------------1-----------------0---------0---------0-------0-|
D|------------------------------------------------0--------------------------------|
A|--0------------------------------------------------------------------------------|
E|---------------------------0---------------3--------------3----3----3----3---3---|
you've just got to see me throgh another day

(A) (G/E) (D) (Atype2)
My body's aching and my time is at hand

(E) (Gmaj7)
I wont make it any other way

(D) (D/C#) (Bm7) (D/E) (A)
E|-2----------------2----------------------------------0--------0---0----------|
B|-3----------------3----------------------------------0h2------0---0h2----2---|
G|-2----------------2----------------------------2-----2----2-------2---2-----2|
D|-0---------------------------------------------2-----------------------------|
A|-----4------------2----------------------------0-----------------------------|
E|----------------------------0------------------------------------------------|
I've seen fire and I've seen rain I've seen
(D) (D/C#) (Bm7) (D/E0 (A)
sunny days that thought would never end
(D) (D/C#) (Bm7) (D/E) (A)
I've seen lonely times when I could not find a friend

(G) (D/F#) (E7(sus4)) (Em7) (Asus2)
but I always thought that I'd see you again. Been

(A) (G/E) (D) (A type2)
E|-----------5------------3----------------------------2--------------0--------0---|
B|-----------------5-----------3-----------------------3--------------0h2----------|
G|-------6-------------------------4-------------2----------2---------2---2--------|
D|------------------------------------------0--------------------------------------|
A|--0------------------------------------------------------------0-----------------|
E|------------------------0--------------------------------------------------------|
walking my mind to an easy time, my back turn towards the sun

(E) (Gmaj7)
E|--0-----------0------------------------------------------------2-----------------|
B|--0h2----------------------0--------0------------------3----------3--------3-----|
G|--2-----2-----------2------------1-----------------0---------0---------0-------0-|
D|------------------------------------------------0--------------------------------|
A|--0------------------------------------------------------------------------------|
E|---------------------------0---------------3--------------3----3----3----3---3---|
Lord knows when the cold wind blows it'll turn your head around well theres

(A) (G/E) (D) (Atype2)
hours of time on the telephone line to talk about things to come,

(E) (Gmaj7)
sweet dreems and flying machines in pieces on the ground.

(D) (D/C#) (Bm7) (D/E) (A)
E|-2----------------2----------------------------------0--------0---0----------|
B|-3----------------3----------------------------------0h2------0---0h2----2---|
G|-2----------------2----------------------------2-----2----2-------2---2-----2|
D|-0---------------------------------------------2-----------------------------|
A|-----4------------2----------------------------0-----------------------------|
E|----------------------------0------------------------------------------------|
I've seen fire and I've seen rain I've seen
(D) (D/C#) (Bm7) (D/E0 (A)
sunny days that thought would never end
(D) (D/C#) (Bm7) (D/E) (A)
I've seen lonely times when I could not find a friend

(G) (D/F#) (E7(sus4)) (Em7) (Asus2)
but I always thought that I'd see you again.

xox oxx xxo xo o o oo
(A)----xx5th fret (G/E)------ (D)------ (Atype2)------ (E)---x--
---x-- ------ ---x-x --xxx- -xx---
------ ----xx ----x- ------ ------
------ ---x-- ------ ------ ------
xoo x x x x oxx
(Gmaj7)------ (D/C#)------ (Bm7)------ (D/E)------
-----x ---x-x -x-x-x ---x-x
x---x- ----x- ----x- ----x-
------ -x---- ------ ------
xooox xo xx oxo xx oxooxx xo oo
(G)------ (D/F#)------ (E7sus4)------ (Em7)------ (Asus2)------
------ x--x-- ---x-- ------ --xx--
x----- ------ ------ ------ ------
------ ------ ------ ------ ------
------ ------ ------ ------ ------

well folks , thats pretty much it , if you have any questions comments , or request ,
e-mail me @ [email protected] enjoy!


Ваше мнение



Капча