Song: Your Love
Artist: James Brown
Album: Dead On The Heavy Funk (1975-83)
Tabbed by: Dave Miller ([email protected])
http://www.basstabarchive.com/
Verse
G|--------------------------------------------------------|
D|*-------------------------------------------------------|
A|*------8-8-6--------------------------------------------|
E|-----8-------8------------------------------------------|

Chorus
G|----------------------|--------------------------------|
D|*---------------------|--------------------------------|
A|*---------------------|-------8--6--5------------------|
E|----0-4-6-6-6-4-6-----|----------------8---------------|
ends on
Verse (variations)
G|-------------------------------------------------------|
D|*------------------------------------------------------|
A|*------8-6---------8-6---------8-8-8-6-------8-8-8-6---|
E|---6-8-----8---6-8-----8---6-8---------8---8---------8-|




Ваше мнение



Капча