Sex Machine pt 1
by: James Brown
from: James Browns Greatist Hits
Tabbed by : Adam Sorini
tuning: down a half step. Low to high E flat, A flat, C sharp, Fsharp, (or
just play it a down half step from where its
written)
Intro Verse (repeat alot) Bridge
G-----------------------|---------------------|---------------------|
D-----------------------|---------------------|-77---77--5--6--7-x-7|--
A-7--7--7--7--7--7--7-56|-77---77--------77567|---------------------|-
E-----------------------|---------------------|---------------------|-
fills
verse
-----------------|-----------------|-------------------|---
----------6-7-8-9|-----------------|-------------------|-
-77---77---------|-77---77---------|-77---7-------77567|--------
-----------------|----------4-5-6-7|-------------------|----
Hit it and Quit it!
----------------------
-----------------------
7--7--7--7--7----------
----------------------
This is a simple yet great song, play it well.




Ваше мнение



Капча