ong: Sex Machine (Part I and II)
Artist: James Brown
Album: Dead On The Heavy Funk (1975-83)
Tabbed by: Dave Miller ([email protected])
Correction of tab by: Adam Sorini
http://www.basstabarchive.com/
It doesn't get much funkier than the Godfather of
Soul....
Verse
G|------------------------------------------|
D|*--12-12-----------------------10-11-12---|
A|*---------12-12---------------------------|
E|-----------------13-13--10-10-------------|
G|------------------------------------------|
D|*--12-12----------------------------------|
A|*---------12-12---------------------------|
E|-----------------13-13--10-10--8-9-10-----|

Bridge
G|-------------------------------------------|
D|*----------10----8-------------------------|
A|*-----8-10---------10-8----8-6-8----8-6----|
E|--8-------------------------------------8--|




Ваше мнение



Капча