Song: I Refuse To Lose
Artist: James Brown
Album: Dead On The Heavy Funk (1975-83)
Tabbed by: Dave Miller ([email protected])
http://www.basstabarchive.com/
Verse
G|--------------------------------------|
D|*----------------------5--------------|
A|*--3-5-5---3-5-5---3-5----------------|
E|--------------------------------------|

Fill
G|---5h7-5h7----------------------------|
D|*----------5h7-5h7--5---5-7-----------|
A|*---------------------8-----8-5-------|
E|--------------------------------------|

Verse variation
G|--------------------------------------|
D|*---------------------5h6-------------|
A|*--5-8-5--5-8-5-8-5-8-----------------|
E|--------------------------1--1--------|




Ваше мнение



Капча