Song: Hustle (Dead On It)
Artist: James Brown
Album: Dead On The Heavy Funk (1975-83)
Tabbed by: Dave Miller ([email protected])
http://www.basstabarchive.com/
Intro
G|------------------------------------------------------------|
D|*--------------------------------------------5--------------|
A|*--/10-9-7-9-----3-3---3---/7-5-3---3-5-3-/7---7-5-3-5-3----|
E|---------------5-----5---5--------5----------------------5--|
Part II (Verse)
G|--------------------------------------------------------|
D|*-------7--5--7----5h7----------------------------------|
A|*----------------------3--------------------------------|
E|-----5--------------------------------------------------|

Part III
G|--------------------------------------------------------|
D|*-------------------------------------------------------|
A|*---3-3-3-x-5----3-3-3-x-5----7-5-3-3---3---5-3---------|
E|--------------------------------------5---------5-3-----|
Part IV
G|-------------------------------------------------------|
D|*------------------------------------------------------|
A|*------------------------------------------------------|
E|----3-4-5----3-4-5-------------------------------------|

Structure:
Intro
Part II
Part III repeat
Part IV /




Ваше мнение



Капча