THE BOSS
By JAMES BROWN
This is a pretty sweet song. In standard tuning.
(2 GUITARS)
1-Main Riffs:
----------------------------8---8---10-----------------------------|
------11------9--9---9------9---9---9------------------------------|
------10-----10--10--10--------------------------------------------|
-------------------------------------------------------------------|
-------------------------------------------------------------------|
-------------------------------------------------------------------|
-------------------------------------------------------------------|
------11---9-----9---9----9-----9---9---9--9-----------------------|
------10--10-----10--10--10----10--10--10--10----------------------|
-------------------------------------------------------------------|
-------------------------------------------------------------------|
-------------------------------------------------------------------|
2-Main Riffs:
-------------------------------------------------------------------|
-------------------------------------------------------------------|
-------------------------------------------------------------------|
-----1--3--3--3--1------3--3--3---1----3---------------------------|
---3----------------3----------------3-----------------------------|
-------------------------------------------------------------------|
-------------------------------------------------------------------|
-------------------------------------------------------------------|
-------------------------------------------------------------------|
-------------------------------------------------------------------|
----5--3--5--------------------------------------------------------|
-------------------------------------------------------------------|
That's it. Hardest part is just timing.
By Smacky




Ваше мнение



Капча