Song: Bodyheat
Artist: James Brown
Album: Dead On The Heavy Funk (1975-83)
Tabbed by: Dave Miller ([email protected])
http://www.basstabarchive.com/
Main Riff
G|--------------------------------------|
D|*-------------------------------------|
A|*----3-5-3-2-----5-3-2----------------|
E|---5---------5---------5--------------|

Part II
G|------------------------------|
D|*--------------6h7------------|
A|*--8-8-8-8-8-x-----x-5-6------|
E|------------------------------|

There's more to the song, but these are the
main parts.




Ваше мнение



Капча