From: [email protected] (Ejn521)
Subject: CRD: Jackson Browne "My Opening Farewell"
Date: 19 Oct 1996 15:54:59 -0400
My Opening Farewell
Chords Used
D E/D G/D D* G/D* E/D* A7sus4 A7 G F#m A7*
A C/D
--2--------4---------3--------5------7--------7----------0----------0-----
3------2------9------0----0---
--3--------5---------3--------7------8--------9----------3----------2-----
0------2------8------2----1----
--2--------4---------4--------7------7--------9----------0----------0-----
0------2------9------2----0----
--0--------0---------0--------0------0--------0----------2----------2-----
0------4------0------2----0-----
-------------------------------------------------------------
0-----------0---x-------4--------------0---------
--------------------------------------------------------------------------
------3-------2-----------------------
Intro:
E---------5----------5-------------------4---------4-----------------3----
----4----------2----3p2--0------
B-----7----------7-------------------5--------5-----------------3--------3
---------------3----3-------------
G---------7----------7-------------------4---------4-----------------4----
----4----------2----2-------------
D-----0----------0---------0--------0--------0--------0--------0--------0-
------0------0----0-----0------
A-------------------------------------------------------------------------
----------------------------------------
E-------------------------------------------------------------------------
----------------------------------------
D* E/D G/D D G/D* D* E/D G/D
A lady stands before an open window, staring so far away.
D E/D G/D D G/D* D*
G/D D
She can almost feel the southern wind blow, almost touching her restless
Day.
A7sus4 A7 G D G F#m
A7sus4
She turns from her window to me, sad smile her apology
G
Sad eyes reaching to the door.
Daylight loses to another evening,
And still she spares me the word goodbye.
She sits alone beside me fighting her feelings,
Struggles to speak but in the end can only cry.
Bridge 1:
A7sus4 A7 G D
Suddenly it's so hard to find
G A A7sus4
The sound of the words to speak her troubled mind
G F#m A7sus4
So I'm offering these to her as if to be kind
D* G/D* A7* D*
There's a train every day, leaving either way
E/D G/D D C/D
There's a world you know, there's a way to go
G A7 Bm Bm/A
And you'll soon be gone, it's just as well
G D
This is my opening farewell
Last verse:
A child's drawing left there on the table
And a woman's silk lying on the floor
I would keep them here if I were able
To lock her safe behind this open door
Bridge 2:
Suddenly it's so clear to me,
That I asked her to see what she may never see
And now my kind words find there way back to me
There's a train everyday, leaving either way
There's a world you know, You gotta ways to go
And I'll soon believe that it's just as well
This is my opening farewell
Repeat intro
From [email protected] Wed Oct 23 08:14:46 1996
Date: Tue, 22 Oct 1996 09:44:03 -0500 (CDT)
From: Chris Bray
To: [email protected]
Subject: CRD:Jackson Browne-Correction
Path: news.uark.edu!news.mid.net!news.sdsmt.edu!news.wildstar.net!news.ecn.uoknor.edu!munnari.OZ.AU!spool.mu.edu!newspump.sol.net!news-peer.gsl.net!news.gsl.net!portc01.blue.aol.com!newstf01.news.aol.com!newsbf02.news.aol.com!not-for-mail
From: [email protected] (Ejn521)
Newsgroups: rec.music.makers.guitar.tablature
Subject: Re: CRD:Jackson Browne-Correction
Date: 19 Oct 1996 21:16:44 -0400
Organization: America Online, Inc. (1-800-827-6364)
Lines: 35
Sender: [email protected]
Message-ID:
References:
Reply-To: [email protected] (Ejn521)
NNTP-Posting-Host: newsbf02.mail.aol.com
My Opening Farewell
By Jackson Browne
Chords Used:
D E/D G/D D* E/D* G/D*
-----2--------4--------3-------5-------7--------7---
-----3--------5--------3-------7-------9--------8---
-----2--------4--------4-------7-------9--------7---
-----0--------0--------0-------0-------0--------0---
---------------------------------------------------------
---------------------------------------------------------
A7sus4 A7 A7/D
---0----------0------------9--------------
---4----------2------------8--------------
---0----------0------------9--------------
---2----------2------------0--------------
---0----------0----------------------------
--------------------------------------------
Intro:
E-------5-------5-------------4---------4------------3--------3------
B--7--------7------------5---------5------------3--------3-----------
G-------7-------7-------------4---------4------------4--------4------
D--0--------0-------0---0---------0--------0---0---------0-------0-
A-------------------------------------------------------------------------
E-------------------------------------------------------------------------
E----2-----3p2---0-----
B----3--------------------
G----2--------------------
D----0-----0-----0------
A-------------------------
E-------------------------


Ваше мнение



Капча