m: Andrew Rogers
Date: Fri, 3 Apr 1998 12:53:37 -0500
Subject: ./w/wilson_jackie/ill_be_satisfied.crd

"I'll Be Satisfied"
(Berry Gordy, Jr. - Tyrone Carlo - Gwen Gordy)
Intro:
organ (w/drums), arr. for guitar [4X]:
v v v v
-------------------------
-13----15----13----15----
-----14----14----14----14
---15----15----15----15--
-------------------------
-------------------------
Verse 1:
bass [doubled w/baritone sax]:
F [N.C.]
v v v v v
-------|-----------------
---1-2-|-3---------------
-3-----|-----------------
-------|-----------------
[1: Mmm] Just a kiss
F [N.C.]
v v v v v
-------|-----------------
---1-2-|-3---------------
-3-----|-----------------
-------|-----------------
Just a smile
Bb [N.C.]
v v v v v
---1-2-|-3---------------
-3-----|-----------------
-------|-----------------
-------|-----------------
Hold my hand, baby
Bdim7 [N.C.]
v v v v v
---1-3-|-4---------------
-3-----|-----------------
-------|-----------------
-------|-----------------
Just once in a while
F Dm
That's all I need, that's all I need
G9 C7
And I'll be satisfied
Verse 2:
[1: Mmm] Think of me
When you're away
Call me darling, just once a day [2: to coda]
That's all I need, that's all I need
G9 C7 F
And I'll be satisfied
Bridge:
Bb9
[1: Oh 2: Mmm] True love came to me when I met you
F F7
True love makes me know I won't forget you
Bb9
When you're around me it makes me feel
G [N.C.] C [N.C.]
Life is worth living, baby, love is so forgiving
[repeat verse 1 (chords as per verse 2)]
[repeat bridge]
[repeat verse 2; to coda as indicated]
Coda:
F Dm
That's all I need, that's all I need
G9 C7 F
And I'll be... no-no no-no no-no no-no
That's all I need, that's all I need
And I'll be... yeah, yeah, yeah
That's all I need, that's all I need
And I'll be... so satisfied
That's all I need, that's all I need
Baby, baby, baby, baby baby
That's all I need, that's all I need
And I'll be... yeah, yeah, yeah [fade]
-- another ace 50's tab from Andrew Rogers




Ваше мнение



Капча