Yellow Brick Road (guitar)
by Jack Off Jill
Tabbed by Ottis ([email protected])

e-----------------
B-----------------
G--0-0-0-0-0-0---- [etc.]
D-----------------
A-----------------
E-----------------
Verse

e---------------
B---------------
G-----5--4--7---
D--7--5--4--7---
A--7--3--2--5---
E--5------------
Chorus

e----------------------------------------------------------------
B----------------------------------------------------------------
G---------------------------------------------------------12-12--
D--------------7--------------7--------------7------------12-12--
A--------------7--------------7--------------7------------10-10--
E---0-0-0-0-0--5---0-0-0-0-0--5---0-0-0-0-0--5---0-0-0-0---------
Ending





Ваше мнение



Капча