Well, since everywhere I have looked for this tab has either not had this song or
tabbed the wrong song and claimed it was this. (They really are that bad.) Anyway, this is my
contribution to UG so if anyone wants any more JoJ tabs, i'll be more than happy to give it a shot.
Vivica - Jack Off Jill (Clear Hearts, Grey Flowers)
After Bass intro
Guitar 1
00:07
e-----------------------|
B-----------------------|
G-------------------7---|
D----7-7-7-7-7-7-7--7---|
A----7-7-7-7-7-7-7--5---|
E----5-5-5-5-5-5-5------|
Pm.............
Guitar 2
Clean (Behind Intro) - Note - Because im utterly lazy and cant be bothered to type the
thing again, the notes in {} are played the first time, the notes in [] are played the
time.
00:09
e-------5--6-------------------------[5]--------|
B-----------------{6}[5]--{5}[6]-[5]----[5]-----|
G----7------------------------------------------|
D--------------7--------------------------------|
A-----------------------------------------------|
E-----------------------------------------------|
Guitar 1 plays intro riff throughout chorus while Guitar 2 plays...
00:25
e-------5--6------3--5--------------[5]----------|
B---------------------------5--6-[5]---[5]-------|
G----7---------5---------------------------------|
D------------------------7-----------------------|
A------------------------------------------------|
E------------------------------------------------|
Pre Chorus bit
Guitar 1 (Heavily distorted but behind guitar 2 until chorus)
00:43
e-----------------------------------------------------------------|
B-----------------------------------------------------------------|
G-----------------------------------------------------------------|
D-----------------------------------------------------------------|
A---12-12-12-12-12-12-10-10-10-10-10-10-7-7-7-7-7-7-7-7-7-7-7-7---|
E---10-10-10-10-10-10-8--8--8--8--8--8--5-5-5-5-5-5-5-5-5-5-5-5---|
Guitar 2
00:43
e-----5-6------8-5--------5-6-----6-5-------------------------------------|
B------------------------------8---------- Before Chorus repeat 6-5-6-5-6-|..
G-7--------5--------------------------------------------------------------|
D----------------------7--------------------------------------------------|
A-------------------------------------------------------------------------|
E-------------------------------------------------------------------------|
Then chorus. Not sure but i think its guitar 1 playin it with guitar 2 playing the odd note faintly.
Chorus
Guitar 1
1:00
e---------------------------------------------------------|
B---------------------------------------------------------|
G---------------------------------------------------------|
D--7-7-77-7-5-55-555-5-5-5-55-5-3-33-3~~5-55--------------|
A--7-7-77-7-5-55-555-5-5-5-55-5-3-33-3~~5-55--------------|
E--5-5-55-0-3-33-333-0-3-3-33-0-1-11-1~~3-33--------------|
Guitar 2 (Im not sure, but it sounds like the lil 6-5-6-5-6 bit before chorus)
Later on theres some acoustic strumming behind the guitar 2, not sure whether its
guitar or overdubbing but still. Think its Am, G and F but i cant be sure.
But basically, the whole song. Just derevatives of these sequences. Should
be able to figure it out from what ive put for y'all. Enjoy.
If anyones got any requests for any JoJ song, or would like to correct me
(which it'll need a lot of) Email me - [email protected]
Happy Guitaring ;)





Ваше мнение



Капча