Swollen (guitar)
by Jack Off Jill
Tabbed by Ottis ([email protected])
e----------------------------
B----------------------------
G----------------------------
D----------------------------
A--2--3--2--3--2--3--2--3----
E----------------------------
Intro
e-------------------------------------------------
B-------------------------------------------------
G-------------------------------------------------
D------------------2--3-3--2--3-------------------
A--2--3-3--2--3-3---------------------3-3-3--2-2--
E--------------------------------3--0-------------
Verse
e-----------------------------------------------------------
B-----------------------------------------------------------
G-----------------------------------------------------------
D--------3-3-3--2-2---------------------------3-3-3--2-2----
A---------------------------3-3-3--2-2----------------------
E--3--0---------------3--0---------------3--0---------------
Verse (cont.)
e---------------------------
B---------------------------
G--5----4----5----5----4----
D--5----5----5----5----4----
A--3----2----3----3----2----
E-----------------3----2----
Chorus
e----------
B---12^----
G----------
D----------
A----------
E----------
Outro





Ваше мнение



Капча