Super Sadist (guitar)
by Jack Off Jill
Tabbed by Ottis ([email protected])
e-----------------
B-----------------
G------5-------6--
D--5---5---6---6--
A--5---3---6---4--
E--3-------4------
Verse
e-------------
B-------------
G------5------
D--5---5---6--
A--5---3---6--
E--3-------4--
Chorus





Ваше мнение



Капча