I noticed there was a severe lack off Jack Off Jill Tabs so i tabbed my favorite, it's all right to my knowlage, but im not 100% sure about the interlude. Hope this helps.
INTRO
e-------------------------------------
B-------------------------------------
G-------------------------------------
D--7-77777-7777-3-33333-3-3-3---------
A--7-77777-7777-3-33333-3-3-3---------
E--5-55555-5555-1-11111-1-1-1--------- X2
VERSE Riff 1
e------------------------------------- e---------------------7~~8~~
B------------------------------------- B---5--5--565----5--5-------
G------------------------------------- G--5--5--5---5--5--5--------
D--7-7-7-7-7-7-3-3-3-5-5-5------------
A--7-7-7-7-7-7-3-3-3-5-5-5------------
E--5-5-5-5-5-5-1-1-1-3-3-3------------ X7
PM>>>>>>>>>>>>>>>>>>>>>
On the 8th time play:
e-------------------------------------
B-------------------------------------
G-------------------------------------
D-------------------------------------
A--8-7---8-7---8-7---8-7-------------- The Bass actually plays this part but it still
E------7-----7-----7-----7------------ sounds ok.
CHORUS
e-------------------------------------
B-------------------------------------
G-------------------------------------
D--7-77777-7777-3-33335-5555----------
A--7-77777-7777-3-33335-5555----------
E--5-55555-5555-1-11113-3333---------- X3
On the 4th time play
e--------------------------------------------
B--------------------------------------------
G--9-8---9-8---9-9-9-9-9-9-12-12-12-12-12-12-
D--9-8-8-9-8-8-9-9-9-9-9-9-12-12-12-12-12-12-
A--8-7-8-8-7-8-8-8-8-8-8-8-10-10-10-10-10-10-
E------7-----7-------------------------------
INTERLUDE
e------------------------------------------------
B------------------------------------------------
G--7/9--7/9--7/9--7/9--7/9--7/9--7/9--7/9--4-5---
D--7/9--7/9--7/9--7/9--7/9--7/9--7/9--7/9--4-5-5-
A--5/7--5/7--5/7--5/7--5/7--5/7--5/7--5/7--2-3-5-
E----------------------------------------------3-
IT GOES...
Intro
Verse
Chorus
Verse
Chorus
Interlude
Verse
Chorus D--7----------------
A--7-hold-----------
Then end last chorus with E--5----------------

I HOPE THIS HELPS, IF YOU HAVE ANY IMPROVEMENTS THEN CONTACT AT [email protected]
ALSO VISIT MY BANDS WEBSITE AT HTTP://EASY.TO/FOLLOW-THRU
THANKS!





Ваше мнение



Капча