Star No Star
By Jack off Jill
Tabbed by Kevin the JOJ Fiend
[email protected]

Verse:
G------------------------------------
D------------------------------------
A-------------------------------2---3
E--5--8--7--7--1~~~1--0--0----------

Verse Variation (thrown in at various times):

G----------------------------------------
D-----------------3--3--2----------------
A--------------------------3--5--7-------
E--5--8--7--7---------------------------

Chorus:
G---------------------------------------------
D---------------------------------------------
A--------------2-2-2-2-5-5-5-5-8-7-8-/-10-----
E--0--0--0--0---------------------------------

Bridge:
G--------------------------------------------------------
D--------------------------------------------------------
A-7-7-7-7-7-5-7-7-7-7-7-5-7-7-7-7-7-5-/-8--2-3-2--------
E--------------------------------------------------------





Ваше мнение



Капча