Spit and Rape (guitar)
by Jack Off Jill
Tabbed by Ottis ([email protected])

e-----------
B-----------
G--7--------
D--7--7--9--
A--5--7--9--
E-----5--7--
Verse

e-----------------
B-----------------
G--7-7-7--9-10-9--
D--7-7-7--9-10-9--
A--5-5-5--7-8--7--
E-----------------
Chorus

e---------------
B---------------
G--4--6---7--9--
D--4--6---7--9--
A--2--4---5--7--
E---------------
Post-Chor


Ваше мнение



Капча