Poor Impulse Control (guitar)
by Jack Off Jill
Tabbed by Ottis ([email protected])
e-------5---------8---
B--2/4-------4/7------
G---------------------
D---------------------
A---------------------
E---------------------
Intro [I'm sure you can figure out how this goes.]
e-----------------------------
B-----------------------------
G-----------------------------
D-------2-3-2----2------------
A--0-0---------3---3-2--2-2---
E-----------------------------
Verse
e-----------------------------
B-----10---8---6---10----10---
G-----9----7---5---9-----9----
D-----7----5---3---7--0--7----
A--0--0----0---0---0-----0----
E-----------------------------
Chorus

e-----11-10-8---8h 10p 8---------------------------------------9-10---
B--10---------------------10--------------------------8-9---------
G------------------------------------107---5/7-7---9-10--------------
D---------------------------------------------------------------------
A---------------------------------------------------------------------
E---------------------------------------------------------------------
Solo
e-----8----8--11----8--11-----8-11--10--8--10---8h 10p 8--------16-17--
B--10---10-------10--------10-----------------------------10-----------
G------------------------------------------------------------14--------
D----------------------------------------------------------------------
A----------------------------------------------------------------------
E----------------------------------------------------------------------
Solo (cont.)
e------16-17-----17---
B--14---------14------
G---------------------
D---------------------
A---------------------
E---------------------
Solo (cont.)
End on A





Ваше мнение



Капча