Lollirot (guitar)
by Jack Off Jill
Tabbed by Ottis ([email protected])
e--------------
B--------------
G--------------
D--7---6---9---
A--7---6---9---
E--5---4---7---
Verse
e------------------
B------------------
G--5---6---5---3---
D--5---6---5---3---
A--3---4---3---1---
E------------------
Bridge (There's two different rhythms)





Ваше мнение



Капча