Horrible (guitar)
by Jack Off Jill
Tabbed by Ottis ([email protected])
e--------------------
B--------------------
G--8-8--6------------
D-----------8-8--6---
A--------------------
E--------------------
Verse
e-----------------------------
B-----------------------------
G-----------------------6-5---
D--7-8--7-8--7-8--7-8---6-5---
A--7-8--7-8--7-8--7-8---4-3---
E--5-6--5-6--5-6--5-6---------
Chorus





Ваше мнение



Капча