Girlscout (guitar)
by Jack Off Jill
Tabbed by Ottis ([email protected])
e--0----3----0----2----
B--0----3----1----3----
G--1----0----0----2----
D--2----0----2----0----
A--2----2----3---------
E--0----3--------------
Verse
e--0----3----5----
B--0----5----7----
G--1----5----7----
D--2----5----7----
A--2----3----5----
E--0--------------
Chorus
e--0----0-0----0---
B--5----4-5----4---
G------------------
D------------------
A------------------
E------------------
Interlude
e---0-----0--0-----0----
B---12----11-12----11---
G-----------------------
D-----------------------
A-----------------------
E-----------------------
Interlude (cont.)





Ваше мнение



Капча