Artist: Jack Off Jill
Song: Fear Of Dying
Tabbed By: Martin Docherty, [email protected]

Distortion on
standard tuning

Verse

|------------------------------------|
|------------------------------------|
|------------------------------------|
|-3-33-xxx-5-55-xxx-6-66-xxx-8-88-653|
|-3-33-xxx-5-55-xxx-6-66-xxx-8-88-653|
|-1-11-xxx-3-33-xxx-4-44-xxx-6-66-431|

Chorus

|----------------------------|
|----------------------------|
|3-3-3336-6-666--------------|
|3-3-3336-6-6666-6-6663-3-333|
|1-1-1114-4-4446-6-6663-3-333|
|--------------4-4-4441-1-111|

|-------------------------------|
|-------------------------------|
|3-3-3336-6-666--------------655|
|3-3-3336-6-6666-6-6663-3-333655|
|1-1-1114-4-4446-6-6663-3-333433|
|--------------4-4-4445-5-555---|

|----------------------------|
|----------------------------|
|3-3-3336-6-666--------------|
|3-3-3336-6-6666-6-6663-3-333|
|1-1-1114-4-4446-6-6663-3-333|
|--------------4-4-4441-1-111|

|-------------------------------|
|-------------------------------|
|3-3-3336-6-6668-8-7-87-8-8-7-87|
|3-3-3336-6-6668-8-7-87-8-8-7-87|
|1-1-1114-4-4448-8-7-87-8-8-7-87|
|-------------------------------|

Fill

|-----------------|
|-----------------|
|8-8-7-87-8-8-7-87|
|8-8-7-87-8-8-7-87|
|8-8-7-87-8-8-7-87|





Ваше мнение



Капча