Devil With The Black Dress On (guitar)
by Jack Off Jill
Tabbed by Ottis ([email protected])
e--10----11----
B--13^---16^---
G--------------
D--------------
A--------------
E--------------
Intro / Outro
e----------------
B----------------
G--7-------------
D--7-------------
A--5---3p-0-3/5--
E----------------
Verse
e--------------------
B--------------------
G--7---5-------------
D--7---5--3p-0-------
A--5---3--------3/5--
E-------------------- x3
Chorus
e-----------------
B-----------------
G--7--5-----------
D--7--5-----------
A--5--3--3p0-3/5--
E-----------------
Chorus (cont.)
End on A





Ваше мнение



Капча