CumDumpster (guitar)
by Jack Off Jill
Tabbed by Ottis ([email protected])

e-----------------------------
B-----------------------------
G-----------------------------
D-----------------------------
A-----------------------------
E--6--5--6--5----8--7--8--7---
Verse

e-----------------------
B---4----3----6----5----
G---6^---5^---8^---7^---
D-----------------------
A-----------------------
E-----------------------
Pre-Chor

e-------------------------------------
B-------------------------------------
G------4---3---------6-6---4--6-6-6---
D--2---5---4-----2---7-7---5--7-7-7---
A--2---5---4-----2---7-7---5--7-7-7---
E--0---3---2-----0---5-5---3--5-5-5---
Chorus

e-----------------------------
B-----------------------------
G-----------------------------
D--8--7--8--7----10-9--10-9---
A-----------------------------
E--6--5--6--5----8--7--8--7---
Last verse





Ваше мнение



Капча