Covet (guitar)
by Jack Off Jill
Tabbed by Ottis ([email protected])
e-------------------
B-------------------
G--8-8-8-8-8-8--7---
D--8-8-8-8-8-8--7---
A--6-6-6-6-6-6--5---
E-------------------
Intro
e-------------------------------------------------------------
B-------------------------------------------------------------
G----------------------------------------------8-8-8-8-8-8-7--
D--2-------2-----2-2-----2-----2-2-----2-------8-8-8-8-8-8-7--
A--0-0-3-0-0-3-0-0-0-3-0-0-3-0-0-0-3-0-0-3-0---6-6-6-6-6-6-5--
E-------------------------------------------------------------
Verse
e------------------------------------------------
B------------------------------------------------
G---------9----------8----------7---5-5-5--4-4---
D--2------9---2------8---2------7---5-5-5--4-4---
A--0-3-0--7---0-3-0--6---0-3-0--5---3-3-3--2-2---
E------------------------------------------------
Chorus
e-----------------------------------------------------------------------
B---------------------------------8^----8^--------7^-7-5----------------
G-------------------------------------------7^-5--7^-7-5----------------
D--7^-7-----7^-7p0--7^-7---7^-----------------------------75--7--7--7--
A--------0---------------------0-----0----------------------------------
E-----------------------------------------------------------------------
Solo
e------17-17------------------------------------------------------------
B--20--17-17-----20^-20^-20^-20^-------------------13-15--13--15---15---
G-------------0-----------------------------12-14--12-12--12--12---12^--
D----------------------------------------14-----------------------------
A-----------------------------------12---------------------------------
E-----------------------------------------------------------------------
Solo (cont.)

e---------------------------------------------------------------------
B--15-----------------------------------------------------------5^---
G--12---7^---7^--7-5--------------------------------------------5^---
D------------------------7-5----------------------------5---5-7-------
A-----------------------------7-53--------------3-5/7----7-----------
E------------------------------------5---3---5------------------------
Solo (cont.)





Ваше мнение



Капча