Confederate Fag (guitar)
by Jack Off Jill
Tabbed by Ottis ([email protected])

e--4--7-6---4--7-8--7---
B--4--9-8---4--7-8--7---
G--5--9-8---5--8-9--8---
D--6--9-8---6--9-10-9---
A--6--7-6---6--9-10-9---
E--4--------4--7-8--7---
Verse

e--4--4---
B--4--4---
G--5--5---
D--6--6---
A--6--6---
E--4--4---
Chorus

e----------------------
B----------------------
G----------------------
D----------------------
A-----7-6--------------
E--4--------4--7-8-7---
Last Chorus





Ваше мнение



Капча