-------------------------------------------------------------------------------
Cinnamon Spider - Jack Off Jill
-------------------------------------------------------------------------------
Tabbed by:jay
Email:[email protected]
Heres my attempt at a tab...first time
...comments more than welcome
Tuning:standard heav distortion
e|---------------------------------------|-----------------------------------|
B|---------------------------------------|-----------------------------------|
G|---------------------------------------|-----------------------------------|
D|--5--7---------------------------------|--x3---7--7-7-7----8---10----------|
A|--3--5---------------------------------|-------3--5-5-5----6----8----------|
E|----------9.75--9--8.5--8--7.5--7--5.5-|-----------------------------------|
N.H...........................

e|---------------------------------------------------------------------------|
B|---------------------------------------------------------------------------|
G|---------------------------------------------------------------------------|
D|---5--7----5--7----5--7----7-7-7-7---8--10---------------------------------|
A|---3--5----3--5----3--5----3-5-5-5---6---8---------------------------------|
E|---------------------------------------------------------------------------|
if you want you can have a second guitar play this when the high hats come
in
e|-11-11-11-11-11-11-11-12-12-12-12-12-12-12---7-7-7-7-7-7-7-5-5-5-5-5-5-5---|
B|---------------------------------------------------------------------------|
G|---------------------------------------------------------------------------|
D|---------------------------------------------------------------------------|
A|---------------------------------------------------------------------------|
E|---------------------------------------------------------------------------|
that second guitar part is all in palm muted natural harmonics...listen to
the song...it might need a little fixing
Chorus
e|---------------------------------------------------------------------------|
B|---------------------------------------------------------------------------|
G|---------------------------------------------------------------------------|
D|---7--7--7--9--9---12/8-8-8--7-7-7-----------------------------------------|
A|---5--5--5--8--8---10/6-6-6--5-5-5-----------------------------------------|
E|---------------------------------------------------------------------------|
thats all just figure out the order... its all easy..jus reapeats that a few times
it might not be right but email me and let me know what you think





Ваше мнение



Капча