----------------------------------------------------------------------------
TRAFFIC IN THE SKY - Jack Johnson
----------------------------------------------------------------------------
Tabbed by: trism18
Email: [email protected]

Tuning: Standard

D F#m C
e|-----------------------------------------------------------|
B|---------7-------------------10--------------------5-------|
G|---7---7---7--7-----11----11----11----11-----5---5---5---5-|
D|-----7------7----------11----------11----------5-------5---|
A|-5~~~~~~~~~~~~~~/9~~~~~~~~~~~~~~~~~~~~~~~3~~~~~~~~~~~~~~~~|
E|-----------------------------------------------------------|

Em
e|---------------------|
B|-----------8---------|
G|-----9---9---9---9---|
D|-------9-------9-----|
A|~~7-----------------|
E|---------------------|

This continues throughout the verses.

Thanks to ZososoZ for the chords.





Ваше мнение



Капча