Thicker Than Water Jam
e-----------0---2---4-------4---5---0---0---2--
B-----------0---4---5-------4---5---0---2---4--
G-----------1---2---4-------5---6---1---0---2--
D------2-4--2---4---6-------4---5---2---2---4--
A--2/4------2---2---4-------6---7---2---0---2--
E-----------0---2---4-------4---5---0---0---2--
Jack plays this in the
background during the whole song and then solos over it. It's way too much to
figure out let alone tab. Here's the only stretch that I figured out.
e----------------------------------------/9-12-9--------------1297/9/12--
B--------5------5-----5-----5-7-7B--------------12-9-9--1297/9/12--------
G--4h6--4h6--4h6--4h6------------------------------------------------------
D--------------------------------------------------------------------------
A--------------------------------------------------------------------------
E--------------------------------------------------------------------------





Ваше мнение



Капча